MUZBANK



A Most Complete Bank Of Music Information

МУЗЫКАЛЬНО-ИНФОРМАЦИОННЫЙ БАНК

Поиск по сайту







    OOnesidezero • Shed The Skin (аккорды и текст - chords & lyrics)


    307

    Print

    Видео «Shed The Skin (Onesidezero)»

    Видео клипы к песне подбираются автоматически сайтом youtube. Возможны некоторые несоответствия клипов песне.

    ↑ Спрятать рекламу ↑



    Download


     
    
    
    Artist- Onesidezero
    Song- Shed the skin
    Tabber- Iconoclast
    
    Intro/Bridge
    e|--------------------------------|
    b|--------------------------------|
    g|--------------------------------|
    d|-0-0-2-2s3-0-2------------------|
    a|-0-0-2-2s3-0-2------------------|
    D|-0-0-2-2s3-0-2------------------|
    
    Verse
    e|-------12----------12----------12-17-12----12---------|
    b|----13----------13----------13----------13----13-12---|
    g|-14-------14-13-------13-14---------------------------|
    d|------------------------------------------------------|
    a|------------------------------------------------------|
    D|------------------------------------------------------|
    
    Chorus (no strumming shown)
    e|----------------------------------|
    b|----------------------------------|
    g|-9-9b-10-14-16-17-16-14-13-10-----|
    d|-x-x---x--x--x--x--x--x--x--x-----|
    a|-7-7b--8-12-14-15-14-12-11--8-----|
    D|----------------------------------|
    
    Fill at end of 2nd verse
    e|-15h17p15-------------------------|
    b|----------12h13p12-13-15-13-12-13-|
    g|----------------------------------|
    d|----------------------------------|
    a|----------------------------------|
    D|----------------------------------|
    
    During bridge, these 2 notes are played a few seconds apart
    
    e|----------------------------------|
    b|----------------------------------|
    g|-----11b11------------------------|
    d|----------------------------------|
    a|-12b------------------------------|
    D|----------------------------------|
    
    I dunno what i should do next....any suggestions?
     

    Тональность:

    Нет текста!



    Назад
    Рекомендуем посмотреть другие песни исполнителя «Onesidezero»:

    • Комментарии Facebook ()
    • Комментарии ВКонтакте



    Добавить в Избранное Браузера
    Сохранить здесь Очистить


    x

    0


    +
    -

    +
    -

    -

    Авторизация





    Зарегистрироваться

    M

    Дата и время

    • 17:20:38
       

    Социальные ссылки


    Наши приложения

    • Muzbank App Play Market
    • Muzbank Amazon App