MUZBANK



A Most Complete Bank Of Music Information

МУЗЫКАЛЬНО-ИНФОРМАЦИОННЫЙ БАНК








    OOperation Ivy • Smiling (аккорды и текст - chords & lyrics)


    272

    Print

    Видео «Smiling (Operation Ivy)»

    Видео клипы к песне подбираются автоматически сайтом youtube. Возможны некоторые несоответствия клипов песне.

    ↑ Спрятать рекламу ↑





     
    
    
    Artist: Operation Ivy
    Song Title: Smiling
    
    Intro:
    
    G|---|-----------------|
    D|-r-|-----------------|
    A|-r-|-5-5-5-5-5-5-5-5-|
    E|---|-----------------|
    
    
    Verse:                         
    
    G|---------------------------|-----------------------|
    D|-----------------------2-2-|-3-3-3-2-0-3-3-3-3-2-0-|
    A|---2-5-5-5-5-3-3-3-3-3-----|-----------------------|
    E|-3-------------------------|-----------------------|
    
    
    Pre-Chorus:
    
    G|---------------------|
    D|-------------3-3-3---|
    A|-------3-3-3-------5-|
    E|-3-3-3---------------|
    
    
    Chorus:
    
    G|-------------------------|
    D|-------------------------|
    A|-----2-3-3-2-------------|
    E|-3-5---------5-3-3-5-7-8-|
    
    
    Adam
    
    Have fun
     

    Тональность:

    Нашли ошибку?



    Назад
    Рекомендуем посмотреть другие песни исполнителя «Operation Ivy»:

    • Комменты Fb ()
    • Комменты ВК



    Добавить в Избранное Браузера
    Сохранить здесь Очистить


    x

    0


    +
    -

    +
    -

    -

    Авторизация





    Зарегистрироваться

    M

    Дата и время

    • 16:32:24
       

    Социальные ссылки


    Наши приложения

    • Muzbank App Play Market
    • Muzbank Amazon App