MUZBANK



A Most Complete Bank Of Music Information

МУЗЫКАЛЬНО-ИНФОРМАЦИОННЫЙ БАНК

Поиск по сайту







    OOpeth • Credence (аккорды и текст - chords & lyrics)


    487

    Print

    Видео «Credence (Opeth)»

    Видео клипы к песне подбираются автоматически сайтом youtube. Возможны некоторые несоответствия клипов песне.

    ↑ Спрятать рекламу ↑



    Download


     
    
    
    Legend
    ------
    
     h  = hammer-on
     p  = pull-off
     b  = bend
     r  = bend release
     /  = slide up/down
     = natural harmonic
    [5] = artifical harmonic
     ~  = vibrato
     tr = trill
    
    
    E|------------------------------------------------------------
    B|---------0-----------0------------0-----------0-------------
    G|-------5---5-------5---5------3-------3---3-------3---------
    D|-----7-------7---7-------7------5---5-------5---5-----------
    A|---0-----------0------------6-----------6-------------------
    E|------------------------------------------------------------
    
    
       End 1
    
    E--------0--0-------------------------------------------------
    B-----8----------0---0---0---0--------------------------------
    G--0-----6--6--3---3---3---3---3------------------------------
    D-----8-------------------------------------------------------
    A-------------------------------------------------------------
    E-------------------------------------------------------------
    
    
       End 2
    
    E-------------------------------0------------6----------------
    B---------------------------------0----------5----------------
    G-------0-------------0---------3--------3----------------
    D-----------------------4---------2-----------------------
    A---------9-----10----------------------2---------------------
    E------------11---------------0-----------0-------------------
    
    
       Transition
    
    E|---5-----5-----5---5-------------5----------------------------3/5-5--------
    B|----6-----6-----6-5-------5-----5--------8/10-8-------1-1/3--3/5-5-5-8-8h10
    G|-------7-----6-----7-----5-----5--------7-7/-9-7-----2--------------5------
    D|-----------------------7-----6--------6------------2-----------------------
    A|------------------------------------7--------------------------------------
    E|---------------------------------------------------------------------------
    
    
        Rhythm
    
    E|-----------------------------------------------0---------------
    B|-------------1/3-0-1-----1/3-0-------0-----0-1-1---------------
    G|-----------2-2/4-0-2-----2/4-0-----0---0---0-2-------0---------
    D|---------2-------------2---------2-------2---------3-----------
    A|-------0-------------0-----------------------------------------
    E|-------------------------------0-----------------0-------------
    
    
        Rhythm
    
    E|-------------------0-0--0-----------------0-----------------------
    B|-------------------2-2--0------10-8-----3---1-3-------------------
    G|--------2-2/3-2----0-0--0-------9-9-------0---2-------------------
    D|------0-----------------------------7---3---2-3-------------------
    A|----1------------0---------7h8------------------------------------
    E|------------------------------------------------------------------
    
    
                                              End Rhythm
    
    E-------------------------------------||-------3-3-----2----||-------------
    B-------------------------------------||*------5-5-4-4-3---*||-------------
    G-------------------------------------||-----------3-3------||-------------
    D--11---------------------------------||--------------------||-------------
    A-----10-9--8h9-8h9-8h9-8h9-----5/7---||*------------------*||-------------
    E----------------------------10-------||---0----------------||-------------
    
    
    E|------0------------------12---||-------------------------------------------
    B|--------0---------------------||*------------------------------------------
    G|----------0-------/---12------||-----7/9-7------------7/9------------------
    D|----------2-------------------||-----------7/10-9-9-------9p7--------------
    A|----------2-------------------||*------------------------------10p9-9h10-9/
    E|------------------------------||---0----------------0----------------------
     

    Тональность:

    Нет текста!



    Назад
    Рекомендуем посмотреть другие песни исполнителя «Opeth»:

    • Комментарии Facebook ()
    • Комментарии ВКонтакте



    Добавить в Избранное Браузера
    Сохранить здесь Очистить


    x

    0


    +
    -

    +
    -

    -

    Авторизация





    Зарегистрироваться

    M

    Дата и время

    • 03:11:36
       

    Социальные ссылки


    Наши приложения

    • Muzbank App Play Market
    • Muzbank Amazon App