MUZBANK



A Most Complete Bank Of Music Information

МУЗЫКАЛЬНО-ИНФОРМАЦИОННЫЙ БАНК

Поиск по сайту







    OOrgy • Blue Monday (аккорды и текст - chords & lyrics)


    207

    Print

    Видео «Blue Monday (Orgy)»

    Видео клипы к песне подбираются автоматически сайтом youtube. Возможны некоторые несоответствия клипов песне.

    ↑ Спрятать рекламу ↑



    Download



     
    
    
    Intro/Verse it sound really good with wah pedal or chorus flanger Ps greg tomcza is a big 
    fag that likes defult and thats the only song he know how to play by tory 
    
       |----------------------------------------------| L 
       |----------------------------------------------| 
       |-15-15-15-17-10-10-10-12-------12----12-------| 
       |-15-15-15-17-10-10-10-12-12-12----12-------12-| 
       |-13-13-13-15--8--8--8-10-10-------------10----| 
       |----------------------------------------------| 
    
       |------------------------------------- 
       |------------------------------------- 
       |------------------------------------- 
       |------------------------------------- 
       |------------------------------------- 
       |-5-55-5-5-2-22-2-2-4-44-4-4-4-44-4-4- 
    
       --------------------------------------| R 
       --------------------------------------| 
       --------------------------------------| 
       --------------------------------------| 
       --------------------------------------| 
       --7-77-7-7-2-22-2-2-4-44-4-4-4-44-4-4-| 
    
       Chorus 
    
       |--------------------------------- 
       |--------------------------------- 
       |--------------------------------- 
       |--------------------------------- 
       |-7-7-7-7-2-2-2-2-4-4-4-4-4-4-4-4- 
       |-7-7-7-7-2-2-2-2-4-4-4-4-4-4-4-4- 
    
       |---------------------------------| R 
       |---------------------------------| 
       |---------------------------------| 
       |---------------------------------| 
       |-9-9-9-9-2-2-2-2-4-4-4-4-4-4-4-4-| 
       |-9-9-9-9-2-2-2-2-4-4-4-4-4-4-4-4-| 
    
       |--------------------------------- 
       |--------------------------------- 
       |--------------------------------- 
       |-9-9-9-9-4-4-4-4-6-6-6-6-6-6-6-6- 
       |-9-9-9-9-4-4-4-4-6-6-6-6-6-6-6-6- 
       |-7-7-7-7-2-2-2-2-4-4-4-4-4-4-4-4- 
    
       |-------------------------------------| L 
       |-------------------------------------| 
       |-------------------------------------| 
       |-11-11-11-11-4-4-4-4-6-6-6-6-6-6-6-6-| 
       |-11-11-11-11-4-4-4-4-6-6-6-6-6-6-6-6-| 
       |--9--9--9--9-2-2-2-2-4-4-4-4-4-4-4-4-| 
    
       Fill 
    
       |--------------------------------| R 
       |--------------------------------| 
       |--------------------------------| 
       |-xxxx-x-xxx-x-xxx-x-xx-xxx-xx-x-| 
       |-xxxx-x-xxx-x-xxx-x-xx-xxx-xx-x-| 
       |-xxxx-x-xxx-x-xxx-x-xx-xxx-xx-x-| 
    
       Solo 1 
    
       |---------------------------------- 
       |---------------------------------- 
       |-12-12-12-12-12-12-12-12-12-10-12- 
       |---------------------------------- 
       |-10-10-10-10-10-10-10-10-10--8-10- 
       |---------------------------------- 
    
       |----------------------------------| R 
       |----------------------------------| 
       |-15-15-15-15-15-15-15-15-15-17-12-| 
       |----------------------------------| 
       |-13-13-13-13-13-13-13-13-13-15-10-| 
       |----------------------------------| 
    
       Solo 2 
    
       |-------------------------------------------| L 
       |-------------------------------------------| 
       |-------------------------------------------| 
       |-10-10--5---10-13--17-15---10-12--19-15-12-| 
       |-10--8--5----8-10--17-13----8-10--17-13-10-| 
       |-------------------------------------------|
     

    Тональность:

    Нет текста!



    Назад
    Рекомендуем посмотреть другие песни исполнителя «Orgy»:

    • Комментарии Facebook ()
    • Комментарии ВКонтакте



    Добавить в Избранное Браузера
    Сохранить здесь Очистить


    x

    0


    +
    -

    +
    -

    -

    Авторизация





    Зарегистрироваться

    M

    Дата и время

    • 21:43:36
       

    Социальные ссылки


    Наши приложения

    • Muzbank App Play Market
    • Muzbank Amazon App