MUZBANK



A Most Complete Bank Of Music Information

МУЗЫКАЛЬНО-ИНФОРМАЦИОННЫЙ БАНК








    OOrgy • Dissention (аккорды и текст - chords & lyrics)


    199

    Print

    Видео «Dissention (Orgy)»

    Видео клипы к песне подбираются автоматически сайтом youtube. Возможны некоторые несоответствия клипов песне.

    ↑ Спрятать рекламу ↑





     
    
    
    Dissention 
    
       Intro/Chorus 
    
       |---------------------------------| R 
       |---------------------------------| 
       |---------------------------------| 
       |-5-5---5/4-4-4-7-7-2-2-4-4---3-3-| 
       |-5-5---5/4-4-4-7-7-202-4-4---3-3-| 
       |-3-3---3/2-2-2-5-5-000-2-2---1-1-| 
    
       |-10------11-10-----------11-8----| L 
       |---------------------------------| 
       |-----------------7-------------7-| 
       |---------------------------------| 
       |---------------------------------| 
       |---------------------------------| 
    
       Verse 
    
       |-10----8--15-16--10----8-| L 
       |----10--------------10---| 
       |-------------------------| 
       |-------------------------| 
       |-------------------------| 
       |-------------------------| 
    
       Interlude 
    
       |---|---|---| R 
       |---|---|---| 
       |---|---|---| 
       |-7-|-5-|-8-| 
       |-7-|-5-|-8-| 
       |-5-|-3-|-6-| 
       16x 8x 8x 
    
       |---|---|---|---| L R 
       |---|---|---|---| 
       |---|---|---|---| 
       |-7-|-8-|-5-|-9-| 
       |-7-|-8-|-5-|-9-| 
       |-5-|-6-|-3-|-7-| 
       12x 4x 12x 4x
     

    Тональность:

    Нет текста!



    Назад
    Рекомендуем посмотреть другие песни исполнителя «Orgy»:

    • Комментарии Facebook ()
    • Комментарии ВКонтакте



    Добавить в Избранное Браузера
    Сохранить здесь Очистить


    x

    0


    +
    -

    +
    -

    -

    Авторизация





    Зарегистрироваться

    M

    Дата и время

    • 13:46:21
       

    Социальные ссылки


    Наши приложения

    • Muzbank App Play Market
    • Muzbank Amazon App