MUZBANK



A Most Complete Bank Of Music Information

МУЗЫКАЛЬНО-ИНФОРМАЦИОННЫЙ БАНК

Поиск по сайту







    OOrgy • Dizzy (аккорды и текст - chords & lyrics)


    242

    Print

    Видео «Dizzy (Orgy)»

    Видео клипы к песне подбираются автоматически сайтом youtube. Возможны некоторые несоответствия клипов песне.

    ↑ Спрятать рекламу ↑





     
    
    
    Dizzy 
    
       Rhythme play this through the whole song 
    
       |-----------| R 
       |-----------| 
       |-----------| 
       |-8-------6-| 
       |-8-------6-| 
       |-6-------4-| 
    
       Lead plays all this 
    
       |--------------------| L 
       |-10h11-10h11-h12^-^-| 
       |--------------------| 
       |--------------------| 
       |--------------------| 
       |--------------------| 
    
       |----------|----------11-------| L 
       |-10-12-12-|---12-12-----12-11-| 
       |----------|-9-----------------| 
       |----------|-------------------| 
       |----------|-------------------| 
       |----------|-------------------| 
       2x 
    
       |-----| L 
       |-13^-| 
       |-12^-| 
       |-----| 
       |-----| 
       |-----|
     

    Тональность:

    Нет текста!



    Назад
    Рекомендуем посмотреть другие песни исполнителя «Orgy»:

    • Комментарии Facebook ()
    • Комментарии ВКонтакте



    Добавить в Избранное Браузера
    Сохранить здесь Очистить


    x

    0


    +
    -

    +
    -

    -

    Авторизация





    Зарегистрироваться

    M

    Дата и время

    • 06:50:04
       

    Социальные ссылки


    Наши приложения

    • Muzbank App Play Market
    • Muzbank Amazon App