MUZBANK



A Most Complete Bank Of Music Information

МУЗЫКАЛЬНО-ИНФОРМАЦИОННЫЙ БАНК

Поиск по сайту







    OOrgy • Fetisha (аккорды и текст - chords & lyrics)


    355

    Print

    Видео «Fetisha (Orgy)»

    Видео клипы к песне подбираются автоматически сайтом youtube. Возможны некоторые несоответствия клипов песне.

    ↑ Спрятать рекламу ↑



    Download



     
    
    
    Fetisha 
    
       Verse 
    
       |-----------------12--------| L 
       |----------12-11-----9--/11-| 
       |---------------------------| 
       |---------------------------| 
       |---------------------------| 
       |---------------------------| 
    
       |---------------------------| R 
       |---------------------------| 
       |---------------------------| 
       |-10-10-10------------------| 
       |-10-10-10-------7----------| 
       |--8--8--8-8-7------5----7--| 
    
       Chorus 
    
       |---|----|---|---| R L 
       |---|----|---|---| 
       |---|----|---|---| 
       |-9-|-12-|-5-|-2-| 
       |-9-|-12-|-5-|-2-| 
       |-7-|-10-|-3-|-0-| 
       4x 4x 4x 4x 
    
       Fill 
    
       |-----------------------16---------| L 
       |----------------------------------| 
       |-13----14-13----14-13----------13-| 
       |----------------------------14----| 
       |----------------------------------| 
       |----------------------------------| 
    
       Bridge 
    
       |---------------------| L R 
       |---------------------| 
       |---------------------| 
       |-5-8-8-4-6-5-3-6-5-3-| 
       |-5-8-8-5-6-5-3-6-5-3-| 
       |-3-6-6-3-4-3-1-4-3-1-| 
    
       Pre-Interlude 
    
       |----------------------| L 
       |----------------------| 
       |----------------------| 
       |-11---7--11--10-----2-| 
       |-11---7--11--10---4-2-| 
       |----------------------| 
    
       |----------------------| R 
       |----------------------| 
       |----------------------| 
       |-11------11--10-------| 
       |-11------11--10---4---| 
       |----------------------| 
    
       Interlude 
    
       |----|---|----|----|---|---| L R 
       |----|---|----|----|---|---| 
       |----|---|----|----|---|---| 
       |-11-|-7-|-11-|-10-|-4-|-2-| 
       |-11-|-7-|-11-|-10-|-4-|-2-| 
       |--9-|-5-|--9-|--8-|-2-|-0-| 
       4x 4x 4x 4x 4x 4x 
       _________________________________________________________________
     

    Тональность:

    Нет текста!



    Назад
    Рекомендуем посмотреть другие песни исполнителя «Orgy»:

    • Комментарии Facebook ()
    • Комментарии ВКонтакте



    Добавить в Избранное Браузера
    Сохранить здесь Очистить


    x

    0


    +
    -

    +
    -

    -

    Авторизация





    Зарегистрироваться

    M

    Дата и время

    • 13:57:37
       

    Социальные ссылки


    Наши приложения

    • Muzbank App Play Market
    • Muzbank Amazon App