MUZBANK



A Most Complete Bank Of Music Information

МУЗЫКАЛЬНО-ИНФОРМАЦИОННЫЙ БАНК








    OOrgy • Revival (аккорды и текст - chords & lyrics)


    292

    Print

    Видео «Revival (Orgy)»

    Видео клипы к песне подбираются автоматически сайтом youtube. Возможны некоторые несоответствия клипов песне.

    ↑ Спрятать рекламу ↑



    Download


     
    
    
    Orgy-Revival   
     
       Chorus   
     
       |---------------------------------| R   
       |---------------------------------|   
       |---------------------------------|   
       |-5-5-5-5-7-7-7-7-9-9-9-9-2-2-2-2-|   
       |-5-5-5-5-7-7-7-7-9-9-9-9-2-2-2-2-|   
       |-3-3-3-3-5-5-5-5-7-7-7-7-0-0-0-0-|   
     
       |-15-15-14-------11-11-11-12-11-9-| L   
       |---------------------------------|   
       |---------------------------------|   
       |---------------------------------|   
       |---------------------------------|   
       |---------------------------------|   
     
       Pre-Verse   
     
       |---------------------------------| R   
       |---------------------------------|   
       |---------------------------------|   
       |---------------------------------|   
       |---5---5---7---7---9---9---2---2-|   
       |-3---3---5---5---7---7---0---0---|   
     
       Verse   
     
       |-------------| R   
       |-------------|   
       |-------------|   
       |-------------|   
       |-----------3-|   
       |-3-3-3-2-2---|   
     
       |-------------| L   
       |-------------|   
       |-------------|   
       |-5---6---4---|   
       |-------------|   
       |-------------|   
     
       Interlude   
     
       |-------------------------------------| R   
       |-------------------------------------|   
       |-------------------------------------|   
       |-------------------------------------|   
       |-5-5-5-5-5-5-5-4-2-2-2-2-9-9-9-7-7-7-|   
       |-3-3-3-3-3-3-3-2-0-0-0-0-7-7-7-5-5-5-|   
     
       |-12-13-12-13-|   
       |-------------|   
       |-------------|   
       |-------------|   
       |-------------|   
       |-------------|
     

    Тональность:

    Нашли ошибку?



    Назад
    Рекомендуем посмотреть другие песни исполнителя «Orgy»:

    • Комменты Fb ()
    • Комменты ВК



    Добавить в Избранное Браузера
    Сохранить здесь Очистить


    x

    0


    +
    -

    +
    -

    -

    Авторизация





    Зарегистрироваться

    M

    Дата и время

    • 04:21:24
       

    Социальные ссылки


    Наши приложения

    • Muzbank App Play Market
    • Muzbank Amazon App