MUZBANK



A Most Complete Bank Of Music Information

МУЗЫКАЛЬНО-ИНФОРМАЦИОННЫЙ БАНК

Поиск по сайту







    OOsbourne Ozzy • Crazy Train (аккорды и текст - chords & lyrics)


    169

    Print

    Видео «Crazy Train (Osbourne Ozzy)»

    Видео клипы к песне подбираются автоматически сайтом youtube. Возможны некоторые несоответствия клипов песне.

    ↑ Спрятать рекламу ↑



    Download



     
    
    
    Intro                             Intro End
    G|----------------------------|   |------|
    D|----------------------------|   |------|
    A|--------------------5-5-----|   |-5--7-|
    E|-2-2--5-5--0-0--2-2-----0-0-|   |------|
    
    Verse
    G|------------------|
    D|----------7-6-4-2-|
    A|-0-0-0-0-0-0-0-0--|
    E|------------------|
    
    Chorus
    G|-------------------------------------------|
    D|-----------0---------------------0---------|
    A|-------------------------------------------|
    E|-2-0-2--2-0--0245420---2-0-2--2-0--0245420-|
    
    G|------------------------------------|
    D|---------------------4-4-4-4-4-4-4--|
    A|-0----------------------------------|
    E|----4-2-0--2-4--2-2-2-2-2-2-2-2-2-2-|
    
    G|------------------------------------------------------|
    D|-------------------------------------------------0--2-|
    A|-0------------------------0---------------------------|
    E|----4-2-0--2-4-2-0-2--2-4---4-2-0-2-4-2-0-2--2-4------|
    
    Verse
    G|------------------|
    D|----------7-6-4-2-|
    A|-0-0-0-0-0-0-0-0--|
    E|------------------|
    
    Chorus
    G|-------------------------------------------|
    D|-----------0---------------------0---------|
    A|-------------------------------------------|
    E|-2-0-2--2-0--0245420---2-0-2--2-0--0245420-|
    
    G|------------------------------------|
    D|---------------------4-4-4-4-4-4-4--|
    A|-0----------------------------------|
    E|----4-2-0--2-4--2-2-2-2-2-2-2-2-2-2-|
    
    G|------------------------------------------------------|
    D|-------------------------------------------------0--2-|
    A|-0------------------------0---------------------------|
    E|----4-2-0--2-4-2-0-2--2-4---4-2-0-2-4-2-0-2--2-4------|
    
    Intro                             Intro End
    G|----------------------------|   |------|
    D|----------------------------|   |------|
    A|--------------------5-5-----|   |-5--7-|
    E|-2-2--5-5--0-0--2-2-----0-0-|   |------|
    
    Bridge 
    G|-----------------------------------------------------------------|
    D|-----------------------------------------------------------0-2-3-|
    A|-9-9-9-9-9-9-7-7-5-5-5-5-5-5-------------------------0-2-4-------|
    E|-----------------------------9-9-7-7-7-7-5-5-4-0-2-4-------------|
    
    G|-----------------------------------------------------------------|
    D|-4-4-4-4-4-4-2-2-0-0-0-0-0-0-------------------------------0-2-3-|
    A|-----------------------------4-4-2-2-2-2-0-0---------0-2-4-------|
    E|---------------------------------------------4-0-2-4-------------|
    
    G|-----------------------------------------------------------------|
    D|-4-4-4-4-4-4-2-2-0-0-0-0-0-0-------------------------------0-2-3-|
    A|-----------------------------4-4-2-2-2-2-0-0---------0-2-4-------|
    E|---------------------------------------------4-0-2-4-------------|
    
    G|---------------------------------------------------------------|
    D|-4-4-4-4-4-4-2-2-0-0-0-0-0-0-----------------------------------|
    A|-----------------------------4-4-2-2-2-2-0-0-------------------|
    E|---------------------------------------------4-0-0-0-0-0-0-0-0-|
    
    Intro                             Intro End
    G|----------------------------|   |------|
    D|----------------------------|   |------|
    A|--------------------5-5-----|   |-5--7-|
    E|-2-2--5-5--0-0--2-2-----0-0-|   |------|
    
    Verse
    G|------------------|
    D|----------7-6-4-2-|
    A|-0-0-0-0-0-0-0-0--|
    E|------------------|
    
    Chorus
    G|-------------------------------------------|
    D|-----------0---------------------0---------|
    A|-------------------------------------------|
    E|-2-0-2--2-0--0245420---2-0-2--2-0--0245420-|
    
    G|------------------------------------|
    D|---------------------4-4-4-4-4-4-4--|
    A|-0----------------------------------|
    E|----4-2-0--2-4--2-2-2-2-2-2-2-2-2-2-|
    
    G|------------------------------------------------------|
    D|-------------------------------------------------0--2-|
    A|-0------------------------0---------------------------|
    E|----4-2-0--2-4-2-0-2--2-4---4-2-0-2-4-2-0-2--2-4------|
    
    Outro (Fade out)                                              Outro (No Fade)   
    G|----------------------------|                               |-----------|
    D|----------------------------|                               |-----------|
    A|--------------------5-5-----|    Live Tribute Album ends:   |-5--7------|
    E|-2-2--5-5--0-0--2-2-----0-0-|                               |------2-2--|
     

    Тональность:

    Нет текста!



    Назад
    Рекомендуем посмотреть другие песни исполнителя «Osbourne Ozzy»:

    • Комментарии Facebook ()
    • Комментарии ВКонтакте



    Добавить в Избранное Браузера
    Сохранить здесь Очистить


    x

    0


    +
    -

    +
    -

    -

    Авторизация





    Зарегистрироваться

    M

    Дата и время

    • 15:18:25
       

    Социальные ссылки


    Наши приложения

    • Muzbank App Play Market
    • Muzbank Amazon App