MUZBANK



A Most Complete Bank Of Music Information

МУЗЫКАЛЬНО-ИНФОРМАЦИОННЫЙ БАНК








    OOsbourne Ozzy • Dreamer (solo ver 2) (аккорды и текст - chords & lyrics)


    294

    Print

    Видео «Dreamer (solo ver 2) (Osbourne Ozzy)»

    Видео клипы к песне подбираются автоматически сайтом youtube. Возможны некоторые несоответствия клипов песне.

    ↑ Спрятать рекламу ↑





     
    
    
    # solo s=slide v=vibrato b=bendig r=release bending p=pull off h=hammer on
    E------------------------------------------------------6--------------
    B--------------------------------------------------7-9----------------
    G----6-8-8b10-r8-6-8-----------------------6-8-s10-------8b10v-10p8---
    D--6-----------------6s8v-s0-slide down---6------------------------11-
    A---------------------------------------------------------------------
    E---------------------------------------------------------------------
    
    E-------------13-14-16-18---------------------------------------------
    B-------14-16-------------16b18-16b1816b18-16b18----------------------
    G-12b13------------------------------------------17p15---15b17v 

    Тональность:

    Нашли ошибку?



    Назад
    Рекомендуем посмотреть другие песни исполнителя «Osbourne Ozzy»:

    • Комменты Fb ()
    • Комменты ВК



    Добавить в Избранное Браузера
    Сохранить здесь Очистить


    x

    0


    +
    -

    +
    -

    -

    Авторизация





    Зарегистрироваться

    M

    Дата и время

    • 09:21:00
       

    Социальные ссылки


    Наши приложения

    • Muzbank App Play Market
    • Muzbank Amazon App