MUZBANK



A Most Complete Bank Of Music Information

МУЗЫКАЛЬНО-ИНФОРМАЦИОННЫЙ БАНК

Поиск по сайту







    OOsbourne Ozzy • See You On The Other Side (аккорды и текст - chords & lyrics)


    303

    Print

    Видео «See You On The Other Side (Osbourne Ozzy)»

    Видео клипы к песне подбираются автоматически сайтом youtube. Возможны некоторые несоответствия клипов песне.

    ↑ Спрятать рекламу ↑



    Download


    See You On the Other Side (Solo)
    Ozzy Osbourne
    Ozzmosis
    transcribed by Wade Johnson 
    
    tune down 1/2 step
    
    eb|-------------------------------------------------------|
    Bb|-------------------------------------------------------|
    Gb|-----------7-----7h9-10b12~~----------7---7h9-10b12~~--|
    Db|-----5-7/9---9-7------------------7h9---9--------------|
    Ab|-5h7---------------------------------------------------|
    Eb|-------------------------------------------------------|
    
    
    eb|-10----10------------------------------10b12~~-10~~--------------|
    Bb|-10b12-10b12r10p8-10--8h10p8~~-----8----------------10b12r10p8---|
    Gb|-------------------------------7h9---9-------------------------9-|
    Db|-----------------------------------------------------------------|
    Ab|-----------------------------------------------------------------|
    Eb|-----------------------------------------------------------------|
    
    
    eb|---------------------------------------------------|
    Bb|-10b12r10b12r10b12b10b12r10b12r10b12-10b12r10-8----|
    Gb|------------------------------------------------9--|
    Db|---------------------------------------------------|
    Ab|---------------------------------------------------|
    Eb|---------------------------------------------------|
    
    
    eb|-15p12-------------------------------|
    Bb|-------15p12-------------------------|
    Gb|-------------14p12-------------------|
    Db|-------------------14p12-------------|
    Ab|-------------------------14p12-------|
    Eb|-------------------------------15p12-|
    
    
    eb|--------------------------------------------------------15-|
    Bb|--------------------------------------------------15/17----|
    Gb|--------------------------------------------12-------------|
    Db|--------------------------------12----12h14----14----------|
    Ab|--------12----------12----12h14----14----------------------|
    Eb|-12--15----15-12h15----15----------------------------------|
    
    
    eb|-17b19r17-15----15b17-15b17-15~~-------15-/20-19-17-------|
    Bb|-------------17------------------15h17--------------18b20-|
    Gb|----------------------------------------------------------|
    Db|----------------------------------------------------------|
    Ab|----------------------------------------------------------|
    Eb|----------------------------------------------------------|
    
     *strike note while holding bend
    eb|-----------------------|
    Bb|-20-18-----------------|
    Gb|-------17b19r17p15-----|
    Db|-------------------17--|
    Ab|-----------------------|
    Eb|-----------------------|
    
    
    Voices, A thousand thousand voices
    Whispering, the time has passed for choices
    Golden days are passing over, Yeah
    
    I can't seem to see you baby
    Although my eyes are open wide
    But I know I'll see you once more
    When I see you, I'll see you on the other side
    Yes I'll see you, I'll see you on the other side
    
    Leaving, I hate to see you cry
    Grieving, I hate to say goodbye
    Dust and ash forever
    
    Though I know we must be parted
    As sure as stars are in the sky
    I'm gonna see when it comes to glory
    And I'll see you, I'll see you on the other side
    Yes I'll see you, I'll see you on the other side
    
    Never thought I'd feel like this
    Strange to be alone Yeah
    But we'll be together
    Carved in stone, carved in stone, carved in stone
    
    Hold me, hold me tight I'm falling
    Far away, distant voices calling
    I'm so cold I need you darling Yeah
    
    I was down but now I'm flying
    Straight across the great divide
    I know you're crying
    But I'll stop you crying

    Тональность:

    Нет текста!



    Назад
    Рекомендуем посмотреть другие песни исполнителя «Osbourne Ozzy»:

    • Комментарии Facebook ()
    • Комментарии ВКонтакте



    Добавить в Избранное Браузера
    Сохранить здесь Очистить


    x

    0


    +
    -

    +
    -

    -

    Авторизация





    Зарегистрироваться

    M

    Дата и время

    • 09:42:34
       

    Социальные ссылки


    Наши приложения

    • Muzbank App Play Market
    • Muzbank Amazon App