MUZBANK



A Most Complete Bank Of Music Information

МУЗЫКАЛЬНО-ИНФОРМАЦИОННЫЙ БАНК

Поиск по сайту







    OOur Lady Peace • Sell My Soul (аккорды и текст - chords & lyrics)


    263

    Print

    Видео «Sell My Soul (Our Lady Peace)»

    Видео клипы к песне подбираются автоматически сайтом youtube. Возможны некоторые несоответствия клипов песне.

    ↑ Спрятать рекламу ↑



    Download


     
    
    
    Our Lady Peace 
    Sell My Soul 
    Tabbed By: Andy Picker 
    Tuning: Drop a half step 
    
    
    Guitar 1 
    
    E|-------------------------------------------------------| 
    B|------------------------------------3h4p3---------3----| 
    G|----------------------------------5---------3-------3--| 
    D|--------------------------------5---------5---5-5------| 
    A|--------7b---5b-------7b---5b-3------------------------| 
    E|--5-5-5----3----5-5-5----3-----------------------------| 
    
    Guitar 2 
    
    E|------------| 
    B|------------| 
    G|------------| 
    D|-6-6-63-3--| 
    A|-6-6-63-3--| 
    E|-4-4-41-1--| 
    
    Chorus 
    Guitar 1 
    Im not completely sure about this part 
    E|-------------| 
    B|----3--------| 
    G|----2--------| 
    D|--4-0-6-63--| 
    A|--4-0-6-63--| 
    E|--2---4-41--| 
    
    Guitar 2 
    Fill throughout chorus 
    
    E|----------------------------| 
    B|----------------------------| 
    G|---15h17-1512-12h14-12-----| 
    D|------------------------13--| 
    A|----------------------------| 
    E|----------------------------| 
    
    Play around with 13s, 15s, and 17s its played inthere 
     

    Тональность:

    Нет текста!



    Назад
    Рекомендуем посмотреть другие песни исполнителя «Our Lady Peace»:

    • Комментарии Facebook ()
    • Комментарии ВКонтакте



    Добавить в Избранное Браузера
    Сохранить здесь Очистить


    x

    0


    +
    -

    +
    -

    -

    Авторизация





    Зарегистрироваться

    M

    Дата и время

    • 23:30:33
       

    Социальные ссылки


    Наши приложения

    • Muzbank App Play Market
    • Muzbank Amazon App