MUZBANK



A Most Complete Bank Of Music Information

МУЗЫКАЛЬНО-ИНФОРМАЦИОННЫЙ БАНК

Поиск по сайту







    PPacifier • Comfort Me (аккорды и текст - chords & lyrics)


    163

    Print

    Видео «Comfort Me (Pacifier)»

    Видео клипы к песне подбираются автоматически сайтом youtube. Возможны некоторые несоответствия клипов песне.

    ↑ Спрятать рекламу ↑



    Download



     
    
    
    Song: Comfort Me
    Band: Pacifier
    Album: Pacifier
    Tuning: Drop D (G D A D)
    Tabbed By: Adam Duncan (budweiser_frog69@hotmail.com)
    
    x = Dead Note
    ~ = Hold Note/Let Ring
    
    *Wait 2 bars*
    
    INTRO
    
    G|----------------------|
    D|----------------------|  x4
    A|----------------------|
    D|-0-0--xxx-0-0-xxxxxx--|
    
    G|-------------------|
    D|-------------------|  x4
    A|-------------------|
    D|-0-0--6-5-xxx-5-6--|
    
    
    VERSE
    
    G|-------------|      |-------------------|
    D|-------------|  x4  |-------------------|  x4
    A|-------------|      |-------------------|
    D|-0-0---0--0--|      |-0-0--6-5-xxx-5-6--|
    
    
    CHORUS
                                              
    G|-------------------------------------------|-----------------------------------------------|
    D|-------------------------------------------|-----------------------------------------------|
    A|---------------------111111111-33333333----|------------------------111111111-33333333-3~--|
    E|-555555555-333333333---------------------3-|-55555555555-3333333333------------------------|
    
    
    VERSE  x1
    
    CHORUS  x1
    
    
    G|------|--------|
    D|------|--------|
    A|------|--------|
    E|-0-0--|--0--0--|
    
    G|-------------------|
    D|-------------------|  x4
    A|-------------------|
    D|-0-0--6-5-xxx-5-6--|
    
    
    *Rest for 4 bars*
    
    
    BRIDGE
    
    G|-----------------------|
    D|-5~~/-3~~--------------|
    A|-------------1~~--3~~--|
    D|-----------------------|
    
    
    CHORUS  x1
    
    
    END
    
    G|----------------------|---------------||
    D|----------------------|---------------||
    A|----------------------|---------------||
    D|-0-0--xxx-0-0-xxxxxx--|-0-0--xxx-0-0--||
     

    Тональность:

    Нет текста!



    Назад
    Рекомендуем посмотреть другие песни исполнителя «Pacifier»:

    • Комментарии Facebook ()
    • Комментарии ВКонтакте



    Добавить в Избранное Браузера
    Сохранить здесь Очистить


    x

    0


    +
    -

    +
    -

    -

    Авторизация





    Зарегистрироваться

    M

    Дата и время

    • 01:29:57
       

    Социальные ссылки


    Наши приложения

    • Muzbank App Play Market
    • Muzbank Amazon App