MUZBANK



A Most Complete Bank Of Music Information

МУЗЫКАЛЬНО-ИНФОРМАЦИОННЫЙ БАНК

Поиск по сайту







    ППаганини Никколо • для гитары, №3 Андантино в D (аккорды и текст - chords & lyrics)


    306

    Print

    Видео «для гитары, №3 Андантино в D (Паганини Никколо)»

    Видео клипы к песне подбираются автоматически сайтом youtube. Возможны некоторые несоответствия клипов песне.

    ↑ Спрятать рекламу ↑



    Download


    Обозначения:
    
    Пальцы левой руки указаны под табом
    
    ⁄ = Слайд вниз
    
    / = Слайд вверх
    
    CII = Большое баррэ на 2-ом ладу
    
    5p3 = Пулл с 5-ого лада на 3-ий
    
    
    
    ||------||
    
    ||*----*|| = Повторить (реприза)
    
    ||*----*||
    
    ||------||
    
    
    
    
    
    Размер: 2/4
    
    
    
    E|-2-----|--0-----0-----0-----3--2--|--------------------2-----|
    
    B|-------|--------------------------|--3-----------------------|
    
    G|-------|--0-----0-----0-----------|--------------2-----------|
    
    D|-------|--------------------------|--0-----------------------|
    
    A|-------|--0-----0-----0-----------|--------------------------|
    
    E|-------|--------------------------|--------------------------|
    
    
    
    3
    
    E|-⁄0-----0-----0-----2--3--|--7-----------5----⁄2-----|
    
    B|--------------------------|--6-----------7-----------|
    
    G|--0-----0-----0-----------|--------------------------|
    
    D|--------------------------|--0-----------------------|
    
    A|--0-----0-----0-----------|--------------------------|
    
    E|--------------------------|--------------------------|
    
    
    
    5
    
    E|--0-----0-----0-----3--2--|--------------------------|
    
    B|--------------------------|--3-----------------------|
    
    G|--0-----0-----0-----------|--------------2-----2-----|
    
    D|--------------------------|--0-----------------------|
    
    A|--0-----0-----0-----------|--------------------------|
    
    E|--------------------------|--------------------------|
    
    
    
    7
    
    E|--------------------------|--------------------||--2-----|
    
    B|--------3-----------5-----|--3-----------------||--------|
    
    G|--4-----------6-----------|--------------------||*-------|
    
    D|--5-----------5-----------|--4-----------------||*-------|
    
    A|--------------0-----------|--5-----------------||--------|
    
    E|--------------------------|--------------------||--------|
    
    
    
    9
    
    E|--2--3--2--3--2-----------|--------------------------|
    
    B|-----------------5--3--2--|--------------------------|
    
    G|--------------------------|--4-----------------4-----|
    
    D|--------------------------|--------4-----4-----------|
    
    A|--2-----2-----2-----2-----|--2-----------------------|
    
    E|--------------------------|--------------------------|
    
    
    
    11
    
    E|--------------------------|--------------------2-----|
    
    B|--2-----2-----3--2-----2--|--3-----------------------|
    
    G|--------------------4-----|--------------4-----------|
    
    D|--------------------------|--------------------------|
    
    A|--------------------------|--2-----------------------|
    
    E|--2-----2-----2-----------|--------------------------|
    
    
    
    13
    
    E|--2--3--2--3--2-----------|--------------------------|
    
    B|-----------------5--3--2--|--------------------------|
    
    G|--------------------------|--4-----------------4-----|
    
    D|--------------------------|--------4-----4-----------|
    
    A|--2-----2-----2-----2-----|--2-----------------------|
    
    E|--------------------------|--------------------------|
    
    
    
    15
    
    E|--------------------------|--------------------||--2-----|
    
    B|--2-----2-----2-----3--2--|--------------------||--------|
    
    G|--------------------------|--4-----------------||--------|
    
    D|--------------------------|--------------------||--------|
    
    A|--------------------------|--2-----------------||--------|
    
    E|--2-----2-----2-----------|--------------------||--------|
    
    
    
    17
    
    E|-/7----⁄5-----5p3---2-----|--5-----3-----3p2---0-----|
    
    B|--0-----------------------|--------------------------|
    
    G|--------------------------|--------------------------|
    
    D|--------------------------|--------------------------|
    
    A|--------------------------|--------------------------|
    
    E|--------------------------|--0-----------------------|
    
    
    
    19
    
    E|--5-----3-----3p2---0-----|--3-----2-----2p0---------|
    
    B|--------------------------|--------------------3-----|
    
    G|--------------------------|--------------------------|
    
    D|--------------------------|--0-----------------------|
    
    A|--o-----------------------|--------------------------|
    
    E|--------------------------|--------------------------|
    
    
    
    21
    
    E|--2--3--2--3--2-----------|--------------------------|
    
    B|-----------------5--3--2--|--------------------------|
    
    G|--------------------------|--4-----------------4-----|
    
    D|--------------------------|--------4-----4-----------|
    
    A|--2-----------2-----------|--2-----------------------|
    
    E|--------------------------|--------------------------|
    
    
    
    23
    
    E|--------------------------|--------------------||
    
    B|--2-----2-----2-----3--2--|--------------------||
    
    G|--------------------------|--4----------------*||
    
    D|--------------------------|-------------------*||
    
    A|--------------------------|--2-----------------||
    
    E|--2-----2-----2-----------|--------------------||

    Тональность:

    Нет текста!



    Назад
    Рекомендуем посмотреть другие песни исполнителя «Паганини Никколо»:

    • Комментарии Facebook ()
    • Комментарии ВКонтакте



    Добавить в Избранное Браузера
    Сохранить здесь Очистить


    x

    0


    +
    -

    +
    -

    -

    Авторизация





    Зарегистрироваться

    M

    Дата и время

    • 03:30:04
       

    Социальные ссылки


    Наши приложения

    • Muzbank App Play Market
    • Muzbank Amazon App