MUZBANK



A Most Complete Bank Of Music Information

МУЗЫКАЛЬНО-ИНФОРМАЦИОННЫЙ БАНК

Поиск по сайту







    ППаганини Никколо • для гитары, №7 Виваче в А (аккорды и текст - chords & lyrics)


    295

    Print

    Видео «для гитары, №7 Виваче в А (Паганини Никколо)»

    Видео клипы к песне подбираются автоматически сайтом youtube. Возможны некоторые несоответствия клипов песне.

    ↑ Спрятать рекламу ↑



    Download


    Размер: 3/4
    
    
    
    1
    
    E|--------------------|--------------------|-------------------|
    
    B|--------------------|--------------------|-------------------|
    
    G|--------------------|-----------7--6⁄⁄4--|--2--------2--4//6-|
    
    D|-----------7--6⁄⁄4--|--2-----------------|-------------------|
    
    A|--------------------|--------------------|-----0-------------|
    
    E|--------------------|-----0--------------|-------------------|
    
    
    
    4
    
    E|--------------------|--------------------|-----------10-9⁄⁄7-|
    
    B|--------------------|-----------10-9⁄⁄7--|--5----------------|
    
    G|--4-----------------|--------------------|-------------------|
    
    D|-----------7--4⁄⁄1--|--2-----------------|-------------------|
    
    A|-----2--------------|--------------------|-------------------|
    
    E|--------------------|-----0--------------|-----0-------------|
    
    
    
    7
    
    E|--5--------5--7//9--|--7-----------------|--------------5--4-|
    
    B|--------------------|-----------10-7⁄⁄4--|--5--------5-------|
    
    G|--------------------|--------------------|-------------------|
    
    D|--------------------|--------------------|-------------------|
    
    A|-----0--------------|--------------------|-------------------|
    
    E|--------------------|-----7--------------|-----0-------------|
    
    
    
    10
    
    E|-----2--------------|--------------4--2--|-------------------|
    
    B|-----------5--3--2--|--------------------|-----5-----3⁄⁄2--0-|
    
    G|--------------------|-----4-----4--------|-------------------|
    
    D|--0-----------------|--------------------|-------------------|
    
    A|--------------------|--------------------|--4----------------|
    
    E|--------------------|--4-----------------|-------------------|
    
    
    
    13
    
    E|--------------2-----|--------------------|-----------0-------|
    
    B|-----------------5--|-----3-----2--------|--------0-----3--0-|
    
    G|-----2-----2--------|--------------4--2--|-----1-------------|
    
    D|--------------------|--------------------|-------------------|
    
    A|--------------------|--2-----------------|-------------------|
    
    E|--2-----------------|--------------------|--0----------------|
    
    
    
    16
    
    E|--------5-----------|--------7-----------|-------7-----------|
    
    B|-----------7--------|-----9-----9--10----|----9-----9--10----|
    
    G|-----6--------9--8--|--9--------------11-|-9--------------11-|
    
    D|--------------------|--------------9-----|-------------9-----|
    
    A|--------------------|--------------------|-------------------|
    
    E|--5-----------7-----|--0-----------------|-0-----------------|
    
    
    
    19
    
    E|--0-----0-----2-----|--0-----2--0--------|-------------------|
    
    B|-----4-----4-----4--|-----4--------4--3--|--2--1--0----------|
    
    G|--------------------|--------------------|-------------------|
    
    D|--------------------|--------------------|-----------7--6--4-|
    
    A|--------------------|--------------------|-------------------|
    
    E|--0-----------------|--------------------|-------------------|
    
    
    
    22
    
    E|--------------------|--------------------|-------------------|
    
    B|--------------------|--------------------|-------------------|
    
    G|-----------7--6--4--|--2--------2--4--6--|--4----------------|
    
    D|--2-----------------|--------------------|-----------7--4--1-|
    
    A|--------------------|-----0--------------|-----2-------------|
    
    E|-----0--------------|--------------------|-------------------|
    
    
    
    25
    
    E|--------------------|-----------10-9--7--|--5--------5--7//9-|
    
    B|-----------10-9--7--|--5-----------------|-------------------|
    
    G|--------------------|--------------------|-------------------|
    
    D|--2-----------------|--------------------|-------------------|
    
    A|--------------------|--------------------|-----0-------------|
    
    E|-----0--------------|-----0--------------|-------------------|
    
    
    
    28
    
    E|--------10----------|-----9--12-9--10----|----9--12-9--10----|
    
    B|-----------12-10-9--|--10-------------12-|-10-------------12-|
    
    G|-----11-------------|--------------------|-------------------|
    
    D|--0-----------------|--------------------|-------------------|
    
    A|--------------------|--0-----------------|-0-----------------|
    
    E|--------------0-----|--------------0-----|-------------0-----|
    
    
    
    31
    
    E|--9--------------0--|--------------------|--2-----0-----4-|
    
    B|-----12-10-9--------|--3--2--0-----------|--3-----2-----3-|
    
    G|--------------11----|-----------2--1--2--|--2-----2-----4-|
    
    D|--------------------|--------------------|--0-----2-------|
    
    A|--0-----------------|--------------------|----------------|
    
    E|--------------------|--------------------|--------------0-|
    
    
    
    34
    
    E|--------------------|--------------------|-------|
    
    B|--------------------|--------------------|-------|
    
    G|--------------------|-----------7--6⁄⁄4--|--2----|
    
    D|-----------7--6⁄⁄3--|--2-----------------|-------|
    
    A|--------------------|--------------------|-----0-|
    
    E|--------------------|-----0--------------|-------|
    
    
    
    37
    
    E|--2-----0-----4-----|--5-|
    
    B|--3-----2-----3-----|--2-|
    
    G|--2-----2-----4-----|--2-|
    
    D|--0-----2-----------|----|
    
    A|--------------------|--0-|
    
    E|--------------0-----|----|

    Тональность:

    Нет текста!



    Назад
    Рекомендуем посмотреть другие песни исполнителя «Паганини Никколо»:

    • Комментарии Facebook ()
    • Комментарии ВКонтакте



    Добавить в Избранное Браузера
    Сохранить здесь Очистить


    x

    0


    +
    -

    +
    -

    -

    Авторизация





    Зарегистрироваться

    M

    Дата и время

    • 23:22:33
       

    Социальные ссылки


    Наши приложения

    • Muzbank App Play Market
    • Muzbank Amazon App