MUZBANK



A Most Complete Bank Of Music Information

МУЗЫКАЛЬНО-ИНФОРМАЦИОННЫЙ БАНК

Поиск по сайту







    ППаганини Никколо • Рапсодия на тему Паганини (ор. 43) - вариация №18 (аккорды и текст - chords & lyrics)


    434

    Print

    Видео «Рапсодия на тему Паганини (ор. 43) - вариация №18 (Паганини Никколо)»

    Видео клипы к песне подбираются автоматически сайтом youtube. Возможны некоторые несоответствия клипов песне.

    ↑ Спрятать рекламу ↑



    Download


    Строй: D A D G B E
    Размер: 4/4
    
    E|--------5-2-3-5-||-----------------|----------------|
    B|----------------||*3-------------0-|2-3-------------|
    G|----------------||-2---------------|----2-----------|
    D|----------------||-----0-------0---|------4---------|
    A|----------------||*--0---0---0---0-|--------5-0---0-|
    D|----------------||-0-------0-------|----0-------0---|
    
    E|----7-5-2-3-5---|----------------|----------------|
    B|--------------3-|----------5-0-2-|3---------------|
    G|--------------2-|----------------|--2-------------|
    D|0---------------|--0-------0-----|----4---------0-|
    A|--0-------------|0---0---0---0---|------5-0---0---|
    D|------0-------0-|------0---------|--0-------0-----|
    
    E|----------------|----------------|----------------|
    B|------------2---|----------3-2-5-|0-----------0---|
    G|--2-2-1-2-4-2---|2---2---2-------|0---0---0-----2-|
    D|------------4---|------4---------|2---------2-----|
    A|0---0-------0---|--0-------------|0-----2---------|
    D|----------------|----------------|----------------|
    
    E|----------------|------2---------|----4-0-2-4-5-|
    B|0-2-3-----------|--5-3---2-------|------------3-|
    G|----2---2---2---|2-------2---2---|2-----------4-|
    D|----4---------4-|--------4-------|--4-----------|
    A|----------------|--------4-----4-|--------------|
    D|----0-----0-----|----------------|------------0-|
    
    E|----5-5-4-5-8---|----9-----------|----------------|
    B|------------7---|----------9-10--|----------------|
    G|----------------|------7-9-------|--2-----2-------|
    D|----------------|----------------|0---4-5-------0-|
    A|------------0---|--------------0-|------------0---|
    D|----------------|------------0---|----------0-----|
    
    E|--------5-2-3-5--||----------------|----------------|
    B|----------------*||3-------------0-|2-3-------------|
    G|-----------------||2---------------|----2-----------|
    D|------0----------||----0-------0---|------4---------|
    A|0---0-----------*||--0---0---0---0-|--------5-0---0-|
    D|--0--------------||0-------0-------|----0-------0---|
    
    E|----7-5-2-3-5---|----------------|----------------|
    B|--------------3-|----------5-0-2-|3---------------|
    G|--------------2-|----------------|--2-------------|
    D|0---------------|--0-------0-----|----4---------2-|
    A|--0-------------|0---0---0---0---|------5-0---0---|
    D|------0-------0-|------0---------|--0-------0-----|
    
    E|--0-2-5-0-------|--0-2-5-3-------|----------|
    B|--------1-------|4-------1-------|2-3-5-0---|
    G|--------2-------|--------3-------|--------2-|
    D|--------2-------|----------------|--------0-|
    A|----------------|----------------|--------0-|
    D|----------------|----------------|----------|
    
    E|----------|
    B|--0-2-5-3-|
    G|3-------2-|
    D|--------0-|
    A|--------0-|
    D|--------0-|
    

    Тональность:

    Нет текста!



    Назад
    Рекомендуем посмотреть другие песни исполнителя «Паганини Никколо»:

    • Комментарии Facebook ()
    • Комментарии ВКонтакте



    Добавить в Избранное Браузера
    Сохранить здесь Очистить


    x

    0


    +
    -

    +
    -

    -

    Авторизация





    Зарегистрироваться

    M

    Дата и время

    • 13:18:32
       

    Социальные ссылки


    Наши приложения

    • Muzbank App Play Market
    • Muzbank Amazon App