MUZBANK



A Most Complete Bank Of Music Information

МУЗЫКАЛЬНО-ИНФОРМАЦИОННЫЙ БАНК

Поиск по сайту







    PPanda • Si Supieras (аккорды и текст - chords & lyrics)


    221

    Print

    Видео «Si Supieras (Panda)»

    Видео клипы к песне подбираются автоматически сайтом youtube. Возможны некоторые несоответствия клипов песне.

    ↑ Спрятать рекламу ↑



    Download



     
    
    
    Grupo: Panda
    Titulo: Si Supieras
    Transcrita por: Jorge Cuaron (kerloom@yahoo.com)
    Afinacion: (EADGBE)
    
    Intro:
    |---9------9h8----8---11h8----9h8---8-|3
    |------9------------------------------|V
    |-8------8------8---8------8------8---|E
    |-------------------------------------|C
    |-------------------------------------|E
    |-------------------------------------|S
    
    Despues:
    
    Guitarra1:
    |-------------------------------------------------|2
    |-------------------------------------------------|V
    |-------------------------------------------------|E
    |-66-66-8-66-66-8-8/10-1010-8-10-10/11-11-10-10-8-|C
    |-------------------------------------------------|E
    |-------------------------------------------------|S
    
    Despues Octavado
    |------------------------------------------------------|2
    |-99-99-11-99-99-11-11/13-1313-11-13-13/14-14-13-13-11-|V
    |------------------------------------------------------|E
    |------------------------------------------------------|C
    |------------------------------------------------------|E
    |------------------------------------------------------|S
    
    Guitarra2:
      G#5      A#5      C#5      D#5
    |------------------------------------|
    |------------------------------------|
    |-------------------66-6-66--88-8-88-|
    |-66-6-66--88-8-88--66-6-66--88-8-88-|
    |-66-6-66--88-8-88--44-4-44--66-6-66-|
    |-44-4-44--66-6-66-------------------|
    
    Despues siguen estos acorrdes en ritmo Ska
    
     G# A# C#2 D#2
    |-4--6--4--6-|
    |-4--6--4--6-|
    |-5--7--6--8-|
    |-6--8--6--8-|
    |-6--8--4--6-|
    |-4--6-------|
    
    Ejemplo del ritmo (Tocando principalmente las cuerdas de abajo):
    |-44-4-44--44-4-44-|
    |-44-4-44--44-4-44-|
    |-55-5-55--55-5-55-|
    |------------------|
    |------------------|
    |------------------|
    
    Despues entra la segunda guitarra:
    |----------------------------------------|
    |----------------------------------------|
    |----------------------------------------|
    |----6----6----6----6----8----8----8p6h8-|
    |----------------------------------------|
    |-44---44---44---44---66---66---66-------|
    
                                        1era Vez      2da Vez
    |----------------------------------|--------|-----------------|
    |----------------------------------|--------|-----------------|
    |----6----6----6----6----8----8----|-8h10p8-|-8-8-8-8/1010/12-|
    |----------------------------------|--------|-----------------|
    |-44---44---44---44---66---66---66-|--------|-6-6-6-6/8--8/10-|
    |----------------------------------|--------|-----------------|
    
    Coro:
    
     G#5 D#5 A#5 C#5
    |---------------|
    |---------------|
    |-----8-------6-|
    |-6---8---8---6-|
    |-6---6---8---4-|
    |-4---6---6---4-|
    
    El segundo verso es igual al primero, solo que C#2 y D#2 cambian por
    C#5 y D#5 y con distorcion
    
    Mini Solo (Con coro de fondo):
    
    |----------------------------------------|4
    |-8h9----9-8h9----9-8h9----11/13-11-10-9-|V
    |-8---8----8---8----8---8----------------|E
    |----------------------------------------|C
    |----------------------------------------|E
    |----------------------------------------|S
     

    Тональность:

    Нет текста!



    Назад
    Рекомендуем посмотреть другие песни исполнителя «Panda»:

    • Комментарии Facebook ()
    • Комментарии ВКонтакте



    Добавить в Избранное Браузера
    Сохранить здесь Очистить


    x

    0


    +
    -

    +
    -

    -

    Авторизация





    Зарегистрироваться

    M

    Дата и время

    • 10:50:29
       

    Социальные ссылки


    Наши приложения

    • Muzbank App Play Market
    • Muzbank Amazon App