MUZBANK



A Most Complete Bank Of Music Information

МУЗЫКАЛЬНО-ИНФОРМАЦИОННЫЙ БАНК

Поиск по сайту







    ППанфилов Иван • Бессмысленны слова (аккорды и текст - chords & lyrics)


    1388

    Print

    Видео «Бессмысленны слова (Панфилов Иван)»

    Видео клипы к песне подбираются автоматически сайтом youtube. Возможны некоторые несоответствия клипов песне.

    ↑ Спрятать рекламу ↑



    Download



     
    
    
    Am         Dm                   G    
    Я лежу на хирургическом столе пластом
                 C                       F
    Два раненья огнестрельных в теле молодом
                Bb                     E
    Голова прострелена контрольным выстрелом
    
    Уже светает
    
    Опознали родственники,близкие друзья
    труп остывший сномерком на пальце это я
    и жена в истерике-беременна она
    вот так бывает.
    
    Проигрыш.
    -3-3-3--2-2-2--1-1-1--0-0-0--3-3
    -1-1-1--1-1-1--1-1-1--1-1-1--0-0
    -2-2-2--2-2-2--2-2-2--2-2-2--0-0   2 раза 
    -2-2-2--2-2-2--2-2-2--2-2-2--0-0
    -0-0-0--0-0-0--0-0-0--0-0-0--2-2
    -0-0-0--0-0-0--0-0-0--0-0-0--3-3
    
    2.А все начиналось так красиво и легко
    дембельнулся с армии совсем не так давно
    не образованья не работы ничего
    лишь цель подняться
    
    Подтянули старые приятели к себе 
    и мутил под крышей много криминальных тем
    но в один обычный день случился беспредел
    
    Припев.        Am           Dm            
    Бесмысленны слова мне не нужны
                   G           C
    бесмысленной была такая жизнь               2 Раза
                     F              Bb
    оставив только боль в горьких слезах     
                E
    и вечную любовь в сердцах
    
    
    3.А теперь по кладбищу несут гроб на руках
    девушки рыдая раскраснелись все  в слезах
    и оркестр знает свое дело на жмурах
    подпив играет
    
    Опустив в могилу гроб засыпали землей 
    памятник из мрамора воздвигнули братвой
    эпитафия о скорби золотой строкой.
    
    Табы на припев
    Бесмысленны слова         мне не нужны  
    ----------------------------------------------
    ----------------------------------------------
    ----------------------------------------------
    ----------------------------------------------
    --------------------------------------5-7-8--5
    -----------------5-7-8--5---------------------
    
    Бесмысленной была        такая жизнь
    --------------------------------------------
    --------------------------------------------
    --------------------------------------------
    --------------------------------------------
    ------------------------------------3-5-7--3          
    -----------------3-5-7--3-------------------
    
    Оставив только боль        В горьких слезах
    ---------------------------------------------------
    ---------------------------------------------------
    ---------------------------------------------------
    ---------------------------------------------------
    -------------------------------------------1-3-5--1
    -------------------1-3-5--1------------------------
    
    И вечную любовь в сердцах
    ---------0------
    ---------0------
    ---------1------
    ---------2------
    ---------2------
    ---------0------
     

    Тональность:

    Нет текста!



    Назад
    Рекомендуем посмотреть другие песни исполнителя «Панфилов Иван»:

    • Комментарии Facebook ()
    • Комментарии ВКонтакте



    Добавить в Избранное Браузера
    Сохранить здесь Очистить


    x

    0


    +
    -

    +
    -

    -

    Авторизация





    Зарегистрироваться

    M

    Дата и время

    • 05:29:47
       

    Социальные ссылки


    Наши приложения

    • Muzbank App Play Market
    • Muzbank Amazon App