MUZBANK



A Most Complete Bank Of Music Information

МУЗЫКАЛЬНО-ИНФОРМАЦИОННЫЙ БАНК

Поиск по сайту







    PPantera • It Makes Them Disappear (аккорды и текст - chords & lyrics)


    311

    Print

    Видео «It Makes Them Disappear (Pantera)»

    Видео клипы к песне подбираются автоматически сайтом youtube. Возможны некоторые несоответствия клипов песне.

    ↑ Спрятать рекламу ↑



    Download


     
    
    
    From:Lee Catling[sirlee17@hotmail.com]
    Sent:Friday, May 19, 2000 11:33
    To:alexk@atmetal.com
    subject:PanterA
    
    It Makes Them Disappear-PanterA
    
    Tune down half step
    
    use bends where you need them
    riff1
    ---------------------------
    ---------------------------
    ---------------------------
    ---------------------------
    ---------------------------
    0-541-0-652-0-541-0-62-----
    riff2
    ----------------------------------------------
    ----------------------------------------------
    ----------------------------------------------
    2----2-2----2-2----2-2----2----2----2---------
    2-55-2-2-33-2-2-55-2-2-33-2-33-2-33-2---------
    0-33-0-0-11-0-0-33-0-0-11-0-11-0-11-0---------
    pm all of riff2
    riff3
    
    ----------------------------------------------
    ----------------------------------------------
    ------------------------x-x-x-x---------------
    ------------------------x-x-x-x---------------
    ------------------------x-x-x-x---------------
    0h1-1-1-1p0-0-0h1-1-1p0-x-x-x-x---------------
    
    That is all I got if you know more e-mail me thanks
     

    Тональность:

    Нет текста!



    Назад
    Рекомендуем посмотреть другие песни исполнителя «Pantera»:

    • Комментарии Facebook ()
    • Комментарии ВКонтакте



    Добавить в Избранное Браузера
    Сохранить здесь Очистить


    x

    0


    +
    -

    +
    -

    -

    Авторизация





    Зарегистрироваться

    M

    Дата и время

    • 15:18:27
       

    Социальные ссылки


    Наши приложения

    • Muzbank App Play Market
    • Muzbank Amazon App