MUZBANK



A Most Complete Bank Of Music Information

МУЗЫКАЛЬНО-ИНФОРМАЦИОННЫЙ БАНК

Поиск по сайту







    PPantera • Revolution Is My Name (аккорды и текст - chords & lyrics)


    286

    Print

    Видео «Revolution Is My Name (Pantera)»

    Видео клипы к песне подбираются автоматически сайтом youtube. Возможны некоторые несоответствия клипов песне.

    ↑ Спрятать рекламу ↑



    Download



     
    
    
    BASS
    
    Song: Revolution Is My Name
    Band: Pantera
    Album: Reinventing The Steel
    Tabbed: By: Mike Lane
    E-mail: staypuft11@hotmail.com
    
    Intro
    F---------|-------|----------------------------------------|
    C---------|-------|----------------------------------------|
    G---------|-------|----------------------------------------|
    D-12-----|-5/12-|-5/12----------------------------------|
    A---------|-------|--------------3----(3)--3---3--3--3--3-|
    
    
    F----------------------------|
    C----------------------------|
    G----------------------------|
    D-0------0--------0--3-----1-|
    A-------------------------3--|
    
    
    F---------------------------------------|---------------------------------|
    C---------------------------------------|---------------------------------|
    G---------------------------------------|---------------------------------|
    D-0-----(0)-----8--7--0---(0)--3-------|-0----5/12--(12)--0--(0)--3---1-|
    A-------------------------------------3-|-----------------------------3---|
    
    
    F-------------------------|-----------------------------|
    C-------------------------|-----------------------------|
    G-7-7-7-7-7-7-7-7-7-7-7-7-|-7--5----7----5--------------|
    D-------------------------|-------7----7----7-6-5-3-5-3-|
    A-------------------------|-----------------------------|
    
    
    F-----------------------|
    C-----------------------|
    G-----------------------|
    D-0---0---0---0---0---0-|
    A-----------------------|
    
    
    
    F-------------------------------|-------------|
    C---------5--------------5------|-------------|
    G-7--5------7--5--7--5-----7--5-|-------------|
    D------7---------------7--------|-------------|
    A-------------------------------|-1---4--(4)-|
    
    
    Verse
    Sixty-eight...                      (This is right before Pre-Chorus)
    F-------------------------|---------|-----|
    C-------------------------|---------|-----|
    G-------------------------|---------|-----|
    D-0-6-0-3---5-0-6-0-3---5-|---------|-12-|
    A-------------------------|-3--2--1-|-----|
    
    
    Pre-Chorus
    F-------------------------------------|---------|
    C-------------------------------------|---------| After this do the verse
    G-7-7-7-7-7-7-7-7-7-7-7-7-7-7-7-7-7-0-|---------| A couple more times
    D-------------------------------------|-3--2--1-|
    A-------------------------------------|---------|
    
    
    What is my name...(Chorus)
    F----------------|------------------------------------------------------|
    C----------------|------------------------------------------------------|
    G----------------|------------------------------------------------------|
    D----------------|------------------------------------------------------|
    A-1----4---4---4-|-5---3--5--6--5----5---3--5--6--5--(5)--6--6--5---(5)-|
    
    
    F--------------------------------------------------------------------|
    C--------------------------------------------------------------------|
    G--------------------------------------------------------------------|
    D--------------7-----7-----------7--(7)------------------------6--7--|
    A-5---3--5--6-----------3--5--6----------6--6--5--(5)--5--3--5-------|
    
    
    End of chorus
    F------------------|--------------------------------|
    C------------------|----------------------------2-4-|
    G------------------|----------------------0-2-4-----|
    D-6----5----4----3-|-2--2---2-0-2---2-0-2-----------|
    A------------------|--------------------------------|
    
    
    F---------------------------------|---|
    C-----------------------------2-4-|---|
    G-------------------------2-4-----|-%-|
    D-2--2--2-0-2-2-(2)-0-2-4---------|---|
    A---------------------------------|---|
    
    
    F-------------------------------|
    C-------------------------------|
    G-------------------0-2-4-2-0-2-|
    D-2--2--2-0-2-2-(2)-------------|
    A-------------------------------|
    
    
    -----------------|----------------------------2-4-|
    G------------------|----------------------0-2-4-----|
    D-6----5----4----3-|-2--2---2-0-2---2-0-2-----------|
    A------------------|--------------------------------|
    
    
    F---------------------------------|---|
    C-----------------------------2-4-|---|
    G-------------------------2-4-----|-%-|
    D-2--2--2-0-2-2-(2)-0-2-4---------|---|
    A---------------------------------|---|
    
    
    F-------------------------------|
    C-------------------------------|
    G-------------------0-2-4-2-0-2-|
    D-2--2--2-0-2-2-(2)-------------|
    A-------------------------------|
    
    i hope this is the correct version sure as hell sounds like it!
    
    -mike lane
     

    Тональность:

    Нет текста!



    Назад
    Рекомендуем посмотреть другие песни исполнителя «Pantera»:

    • Комментарии Facebook ()
    • Комментарии ВКонтакте



    Добавить в Избранное Браузера
    Сохранить здесь Очистить


    x

    0


    +
    -

    +
    -

    -

    Авторизация





    Зарегистрироваться

    M

    Дата и время

    • 09:07:51
       

    Социальные ссылки


    Наши приложения

    • Muzbank App Play Market
    • Muzbank Amazon App