MUZBANK



A Most Complete Bank Of Music Information

МУЗЫКАЛЬНО-ИНФОРМАЦИОННЫЙ БАНК

Поиск по сайту







    PPapa Roach • Between Angels And Insects (аккорды и текст - chords & lyrics)


    332

    Print

    Видео «Between Angels And Insects (Papa Roach)»

    Видео клипы к песне подбираются автоматически сайтом youtube. Возможны некоторые несоответствия клипов песне.

    ↑ Спрятать рекламу ↑



    Download



     
    
    
    Dropped D tunning
    Intro
    e|-----------------------------------------------|
    B|-----------------------------------------------|
    G|-----------------------------------------------|
    D|-----------------------------------------------|
    A|---8-7-10-8-7-8---8-7-10-8-7-8---8-7-10-8-7-8--|
    D|-0--------------8--------------7---------------|
    Intro (cont.)
    e|-------------------------|
    B|-------------------------|
    G|-------------------------|
    D|-------------------------|
    A|----8-7-10-8-7-8---8-7---|
    D|-11--------------7-----0-|
    Then
    e|---------------------------------|
    B|---------------------------------|
    G|--------5555555---------5555555--|
    D|-000000-5555555-0000000-5555555--|
    A|-000000-3333333-0000000-3333333--|
    D|-000000---------0000000----------|
    
    e|---------------------------------|
    B|---------------------------------|
    G|--------5555555--------55555555--|
    D|-777777-5555555-777777-55555555--| 
    A|-777777-3333333-777777-33333333--|  
    D|-777777---------777777-----------|
    
    e|-----------------------|
    B|-----------------------|
    G|-----------------------|
    D|-----------------------|  In the second time put this
    A|-777777-8888-5555-3333-|  in place of the above
    D|-777777-8888-5555-3333-|
    
    Verse
    e|----------------------------------|
    B|----------------------------------|
    G|------------7----10/12-12-12/10---|  *Palm muted
    D|------------x----x-----x--x---x---|
    A|------------5-0--8/-10-10-10/-8---|
    D|-0-0-0-0-0------------------------|
       * * * * *
    e|-----------------------------------|
    B|-----------------------------------|
    G|--------------10/12--12-12/10------|
    D|----------3----x------x--x--x------|
    A|----------3----8/10--10-10/-8------|
    D|3-3-3-3-3-3--0---------------------|
      * * * * * 
    e|-----------------------------------|
    B|-----------------------------------|
    G|--------------10/12--12-12/10------|
    D|----------7----x------x--x--x------|
    A|----------7----8/10--10-10/-8------|
    D|7-7-7-7-7-7-7----------------------|
      * * * * * 
    e|-------------------------------------|
    B|-------------------------------------|
    G|-------------------------------------|
    D|-----------8-0-----------------------|
    A|-----------8-0-----------------------|
    D|-8-8-8-8-8-8-0--8-10-10-8-10-10-8-10-|
    
    Chorus
    e|--------------------------------|
    B|--------------------------------|
    G|--------------------------------|
    D|-0000-12-10-10-10-10-10-10-10---|   2x
    A|-0000-12-10-10-10-10-10-10-10---|
    D|-0000-12-10-10-10-10-10-10-10---|
    
    e|--------------------------------|
    B|--------------------------------|
    G|--------------------------------| 
    D|-7777-10-10-10-10-10-10-10-10---|
    A|-7777-10-10-10-10-10-10-10-10---|
    D|-7777-10-10-10-10-10-10-10-10---|
    Then
    e|------------------|
    B|------------------|
    G|------------------|
    D|-------10-10------|
    A|-------10-10-Etc.-|
    D|-12/0--10-10------|
    
    Now put it together and enjoy the song
    It 

    Тональность:

    Нет текста!



    Назад
    Рекомендуем посмотреть другие песни исполнителя «Papa Roach»:

    • Комментарии Facebook ()
    • Комментарии ВКонтакте



    Добавить в Избранное Браузера
    Сохранить здесь Очистить


    x

    0


    +
    -

    +
    -

    -

    Авторизация





    Зарегистрироваться

    M

    Дата и время

    • 23:27:41
       

    Социальные ссылки


    Наши приложения

    • Muzbank App Play Market
    • Muzbank Amazon App