MUZBANK



A Most Complete Bank Of Music Information

МУЗЫКАЛЬНО-ИНФОРМАЦИОННЫЙ БАНК

Поиск по сайту







    PPapa Roach • Last Resort (аккорды и текст - chords & lyrics)


    219

    Print

    Видео «Last Resort (Papa Roach)»

    Видео клипы к песне подбираются автоматически сайтом youtube. Возможны некоторые несоответствия клипов песне.

    ↑ Спрятать рекламу ↑



    Download



     
    
    
    Papa roach- last resort
    
    Intro:
    Cut my life into pieces........
    e|----------------------------------------------------------
    A|----------------------------------------------------------
    G|----------------------------------------------------------
    D|---9-9----7-7----5-5----4-4----7-7------------------------
    B|---7-7----5-5----3-3----2-2----5-5------------------------
    E|---9-9----7-7----5-5----4-4----7-7------------------------
    
    e|----------------------------------------------------------
    A|----------------------------------------------------------
    G|----------------------------------------------------------
    D|------------9----------------------9---------------------9
    B|--7/10-9-10---10-9-10------10-9-10---10-9-10-----10-9-10--
    E|----------------------12----------------------10----------
    
      *p.m......................................................
    e|----------------------------------------------------------
    A|----------------------------------------------------------
    G|----------------------------------------------------------
    D|--------------------9-------------------------------------
    B|--10-9-10---10-9-10----10-9-10----------------------------
    E|----------9-----------------------------------------------
      ..............................
    
    * only p.m on verse
     
     chorus:
    e|----------------------------------------------------------
    A|----------------------------------------------------------
    G|----------------------------------------------------------
    D|--9-9-9-9-12121212---1414141414141401010101010101010------
    B|--9-9-9-9-12121212---1414141414141401010101010101010------
    E|--9-9-9-9-12121212---1414141414141401010101010101010------
    
    
    e|----------------------------------------------------------
    A|----------------------------------------------------------
    G|-11-11-11-11--12-12-12-12--14-14-14-14---11-11-11-11----
    D|-x--x--x--x---x--x--x--x---x--x--x--x----x--x--x--x-----
    B|-9--9--9--9---10-10-10-10--12-12-12-12---9--9--9--9-----
    E|----------------------------------------------------------
    
    
    Verse
    Chorus
    
     Nothings alright...........
    e|----------------------------------------------------------
    A|----------------------------------------------------------
    G|----------------------------------------------------------
    D|-141414141414140101010101010101055555555/99999999--------
    B|-141414141414140101010101010101055555555/99999999-x2-----
    E|-141414141414140101010101010101055555555/99999999--------
    
    
    e|---------------------------------------------------------
    A|---------------------------------------------------------
    G|------------7777777---12121212121212---11111111111111----
    D|-x9999999--x5555555--x10101010101010--x9-9-9-9-9-9-9-----
    B|-x7777777--x5555555--x10101010101010--x9-9-9-9-9-9-9-x2--
    E|-x9999999--x5555555--x10101010101010--x9-9-9-9-9-9-9-----
    
    Intro x 3
    
    chorus
    
    outro:
    
    (screamed) i cant go on living.......
    
    e|----------------------------------------------------------
    A|----------------------------------------------------------
    G|--44444444/1212121212121212---11----12-----14----11-------
    D|--22222222/1010101010101010---x-----x------x-----x--------
    B|--22222222/1010101010101010---9-----10-----12----9--------
    E|--22222222/1010101010101010------0-0---0-0---0-0----------
    
    e|----------------------------------------------------------
    A|----------------------------------------------------------
    G|--44444444/1212121212121212---11----12-----14----12/1412-
    D|--22222222/1010101010101010---x-----x------x-----x--x--x--
    B|--22222222/1010101010101010---9-----10-----12----10/1210-
    E|--22222222/1010101010101010------0-0---0-0---0-0----------
    
    e|----------------------------------------------------------
    A|----------------------------------------------------------
    G|--44444444/1212121212121212-------------------------------
    D|--22222222/1010101010101010-------------------------------
    B|--22222222/1010101010101010-------------------------------
    E|--22222222/1010101010101010---0-0-0-0-0-0-0-0-------------
                                  p.m...............
    
    e|----------------------------------------------------------
    A|----------------------------------------------------------
    G|--44444444/1212121212121212---11111111/12121212/14141414-
    D|--22222222/1010101010101010---x-x-x-x--x-x-x-x--x-x-x-x---
    B|--22222222/1010101010101010---9-9-9-9-/10101010/12121212-
    E|--22222222/1010101010101010-------------------------------
    
    e|----------------------------------------------------------
    A|----------------------------------------------------------
    G|-11111111------------------------------------------------
    D|-x-x-x-x-----x2------------------------------------------
    B|-9-9-9-9-------------------------------------------------
    E|----------------------------------------------------------
    
    
    e|----------------------------------------------------------
    A|----------------------------------------------------------
    G|----------------------------------------------------------
    D|--12-12-12-12-12-12-12-12-12-122-------------------------
    B|--12-12-12-12-12-12-12-12-12-122-------------------------
    E|--12-12-12-12-12-12-12-12-12-122-------------------------
    
    
    This is pretty much 100% right,its hard counting the amount of strums in the chorus, 
    but listen to the song and its easy. enjoy
     

    Тональность:

    Нет текста!



    Назад
    Рекомендуем посмотреть другие песни исполнителя «Papa Roach»:

    • Комментарии Facebook ()
    • Комментарии ВКонтакте



    Добавить в Избранное Браузера
    Сохранить здесь Очистить


    x

    0


    +
    -

    +
    -

    -

    Авторизация





    Зарегистрироваться

    M

    Дата и время

    • 11:19:16
       

    Социальные ссылки


    Наши приложения

    • Muzbank App Play Market
    • Muzbank Amazon App