MUZBANK



A Most Complete Bank Of Music Information

МУЗЫКАЛЬНО-ИНФОРМАЦИОННЫЙ БАНК

Поиск по сайту







    PPapa Roach • Last Resort (аккорды и текст - chords & lyrics)


    282

    Print

    Видео «Last Resort (Papa Roach)»

    Видео клипы к песне подбираются автоматически сайтом youtube. Возможны некоторые несоответствия клипов песне.

    ↑ Спрятать рекламу ↑



    Download



     
    
    
    Papa Roach
    Last Resort
    
    5 String Bass in standard tuning
    
    Intro (rest 2 bars) (0:00) (bass fig 1)
    
    G|---------------------------------------------------------------------------|
    D|---------------------------------------------------------------------------|
    A|---------------------------------------------------------------------------|
    E|---------------------------------------------------------------------------|
    B|------------------------5-5----------3-3-------1-1---------0-0--------3-3--|
    
    (bass fig 2) 
    
    G|---------------------------------------------------------------------------------------------------------|
    D|---------------------------------------------------------------------------------------------------------|
    A|-------------------------------------------------------------------------------------------------------5-|
    E|---------------------------------------------------------------------------------------------------------|
    B|--5-5--------3-3--------1-1---------0-0--------3-3--------5-5--------3-3--------1-1--------0-0-----3-3---|
    
    1st and 2nd verse (0:21) and (0:58)
    Play bass fig 2 one and a half times (until you get back to the E(5 on the B)
    Then play this fill
    
    G|-----------------------------------------------|
    D|-----------------------------------------------|
    A|--------------------------5------------5-------|
    E|-----------------------------------------------|
    B|--5-5--------------5--3--------3--3---------3--|
    
    Then play this once
    
    G|--------------------------------------------------|
    D|--------------------------------------------------|
    A|--------------------------------------------------|
    E|--------------------------------------------------|
    B|-5-5--------3-3--------1-1--------0-0-0-0-3-3-3-3-|
    
    1st Chorus (0:42) (2 times)
    
    G|-------------------------------------------------------------------------------------------------|
    D|-------------------------------------------------------------------------------------------------|
    A|--------------------------3--3--3--3--3--3--3--3-------------------------------------------------|
    E|-------------------------------------------------------------------------------------------------|
    B|-5--5--5--5--5--5--5--5---------------------------3--3--3--3--3--3--3--3--3--3--3--3--3--3--3--3-|
    
    (0:52) Play bass fig 1
    
    Then the 2nd Verse
    Then go to the ...
    2nd and 3rd chorus (1:19 and 2:22)(fig 3)
    
    G|------------------------------------------------------------------------------------------------|
    D|------------------------------------------------------------------------------------------------|
    A|-------------------------3--3--3--3--3--3--3--3-------------------------------------------------|
    E|------------------------------------------------------------------------------------------------|
    B|-5--5--5--5--5--5--5--5---------------------------1--3--3--3--3--3--3--3--3--3--3--3--3--3--0--3|
    
    G|--------------------------------------------------------------------------------------------------------|
    D|--------------------------------------------------------------------------------------------------------|
    A|-------------------------3--3--3--3--3--3--3--3---------------------------------------------------------|
    E|------------------------------------------------------------------------/10--10--10--10--10--10--8--10--|
    B|-5--5--5--5--5--5--5--5--------------------------1--3--3--3--3--3--3--3---------------------------------|
    
    Bridge (1:29 and 2:33)
    
    G|-----------------------------------------------------------------------------|
    D|-----------------------------------------------------------------------------|
    A|---------------------------------------------------------5----------------5--|
    E|-12-12-12-12-12-12-12-10-8-8-8-8-8-8-8-10--3-3-3-3-3-3-3----7-7-7-7-7-7-7----|
    B|-----------------------------------------------------------------------------|
    
    G|-------------------------------------------------------------------|
    D|-------------------------------------------------------------------|
    A|-7-7-7-7-7-7-7-5-3-3-3-3-3-3-3-5----------------5------------------|
    E|----------------------------------3-3-3-3-3-3-3----7-7-7-7-7-7-7-7-|
    B|-------------------------------------------------------------------|
    
    G|-------------------------------------------------------------------------|
    D|-------------------------------------------------------------------------|
    A|-7-7-7-7-7-7-7-7---------------------3-3-3-3-3-3-3-3-----------5-5----5--|
    E|-------------------3-3-3-3-3-3-3-3----------------------7-7-7-------7----|
    B|-------------------------------------------------------------------------|
    
    G|-------------------------------------------------------------------------|
    D|-------------------------------------------------------------------------|
    A|-7-7-7-7-7-7-7-7---------------------3-3-3-3-3-3-3-3-----------5---------|
    E|-------------------3-3-3-3-3-3-3-3----------------------7-7-7------------|
    B|---------------------------------------------------------------------0---|
    
    Then play fig 1 twice
    
    3rd verse (2:01) Play fig 1 x3
    Then
    when he says (Mutilation.....)
    
    G|------------------------------------------------------|
    D|------------------------------------------------------|
    A|--------------------------------------------------5---|
    E|------------------------------------------------------|
    B|-5-5----------3-3-----------1-1---------0-0-0-0-3---3-|
    
    Then play fig 3
    
    Ok, now the tricky part...        (here it goes to 2/4 time 
                                       and back to 4/4 again) 
    G|---------------------------------|------------------|-----------------------------------|
    D|---------------------------------|------------------|-----------------------------------|
    A|-7-7-7-7-7-7-7-5-3-3-3-3-3-3-3-3-|------------------|--------------------3--3-3-3-3-3-3-|
    E|---------------------------------|------------------|-----------------------------------|
    B|---------------------------------|--3-3-3-3-3-3-3-3-|-5---5----5-5-5-5------------------|
    
    G|-------------------------------------------------------------------------------------------------------------|
    D|-------------------------------------------------------------------------------------------------------------|
    A|-5-5-5-3-5-5-5-3-5-5-5-3-5-5-5--------------------3-3-3-3-3-3-3-3--------------------------------------------|
    E|------------------------------------------------------------------------------/10-10-10---------/10-10-10-10-|
    B|----------------------------------5-5-5-5-5-5-5-5------------------0--3-3-3-3-----------0-3-3-3--------------|
    
    G|--------------------------------------------------------------------------------------------|
    D|--------------------------------------------------------------------------------------------|
    A|-----------------3-3-3-3-3-3-3--------------------------------------------------------------|
    E|--------------------------------------------------------------------------------------------|
    B|-5-5-5-5-5-5-5-5---------------0--3-3-3-3-3-3-3-3-3-3-3-3-3-3-3-3-3-5-5-5-5-5-5-5-5-5-5-5-5-|
    
    
    End.
    
    Pineau
    jpineau@onlinesupport.pe.ca
    pineau1.ods.org
     

    Тональность:

    Нет текста!



    Назад
    Рекомендуем посмотреть другие песни исполнителя «Papa Roach»:

    • Комментарии Facebook ()
    • Комментарии ВКонтакте



    Добавить в Избранное Браузера
    Сохранить здесь Очистить


    x

    0


    +
    -

    +
    -

    -

    Авторизация





    Зарегистрироваться

    M

    Дата и время

    • 19:09:59
       

    Социальные ссылки


    Наши приложения

    • Muzbank App Play Market
    • Muzbank Amazon App