MUZBANK



A Most Complete Bank Of Music Information

МУЗЫКАЛЬНО-ИНФОРМАЦИОННЫЙ БАНК

Поиск по сайту







    PPapa Roach • Never Enough (аккорды и текст - chords & lyrics)


    259

    Print

    Видео «Never Enough (Papa Roach)»

    Видео клипы к песне подбираются автоматически сайтом youtube. Возможны некоторые несоответствия клипов песне.

    ↑ Спрятать рекламу ↑



    Download



     
    
    
    Artist: Papa Roach
    Album: Infest
    Song Title (Track): Never Enough (Track 9)
    
    Standard E Tuning
    ________________________________________________________________________________
    
    Intro (Guitar 1)
    E---------------|
    B---------------|
    G---------------|
    D---7-6-7-9-76-|
    A-9-------------|
    E---------------|
    Play 4 Times
    
    Intro - Background (Guitar 2)
    E-------|
    B-------|
    G-------|
    D-2-----|
    A-2-7-5-|
    E-0-----|
    Play Each Time After The Music Above Is Complete
    
    Intro 2nd Half
    E-2-5-4-5-7-54-|
    B---------------|
    G---------------|
    D---------------|
    A---------------|
    E---------------|
    Play 4 Times
    ________________________________________________________________________________
    
    
    Verse Riff
    
    E-----------------|
    B-----------------|
    G-----------------|
    D-4-4-x-4-X-4-3/4-|
    A-4-4-x-4-X-4-3/4-|
    E-2-2-X-2-X-2-1/2-|
    Play 3 Times then straight to the music below
    
    E------------------------|
    B------------------------|
    G------------------------|
    D-4-4-x-4-X-4-3/4-4/95~-|
    A-4-4-x-4-X-4-3/4-4/95~-|
    E-2-2-X-2-X-2-1/2-2/73~-|
    
    E----------|
    B----------|
    G----------|
    D-XXXXXXXX-|
    A-XXXXXXXX-|
    E-XXXXXXXX-|
    
    ________________________________________________________________________________
    
    
    Chorus
    E-------------|
    B-------------|
    G-------------|
    D-------------|
    A-------------|
    E-3h5-3h5-32-|
    
    Bridge (Strum For 30 Seconds)
    E----------|
    B----------|
    G----------|
    D-XXXXXXXX-|
    A-XXXXXXXX-|
    E-XXXXXXXX-|
    
    ________________________________________________________________________________
    
    
    Song Order
    
    Intro - X 1
    Intro - Background - X 1
    Intro - X 1
    Intro - Background - X 1
    Intro - X 1
    Intro - Background - X 1
    Intro - X 1
    Intro - Background - X 1
    Intro 2nd Half - X 4 (With Strumming From The Verse Riff)
    Verse Riff - X 2
    Chorus - X 8
    Verse Riff - X 2
    Chorus - X 16
    Intro - Background - X 4
    Bridge - Strum for 30 Seconds
    Intro - With Heavy Distortion - X 4
    Chorus - X 8
    
    End On
    E---------|
    B---------|
    G---------|
    D----7-4~-|
    A-9~---4~-|
    E------2~-|
     

    Тональность:

    Нет текста!



    Назад
    Рекомендуем посмотреть другие песни исполнителя «Papa Roach»:

    • Комментарии Facebook ()
    • Комментарии ВКонтакте



    Добавить в Избранное Браузера
    Сохранить здесь Очистить


    x

    0


    +
    -

    +
    -

    -

    Авторизация





    Зарегистрироваться

    M

    Дата и время

    • 12:50:36
       

    Социальные ссылки


    Наши приложения

    • Muzbank App Play Market
    • Muzbank Amazon App