MUZBANK



A Most Complete Bank Of Music Information

МУЗЫКАЛЬНО-ИНФОРМАЦИОННЫЙ БАНК

Поиск по сайту







    PPapa Roach • She Loves Me Not (аккорды и текст - chords & lyrics)


    212

    Print

    Видео «She Loves Me Not (Papa Roach)»

    Видео клипы к песне подбираются автоматически сайтом youtube. Возможны некоторые несоответствия клипов песне.

    ↑ Спрятать рекламу ↑



    Download



     
    
    
    Drop D Tuning
    
    Slide    /
    Scratch  x
    
    Verse:
    E|-------------------------------------------------------
    B|-------------------------------------------------------
    G|--22--2--------------------22--2--------------------22-
    D|--22--233--300--x22xxx22xxx22--233--300--x22xxx00xxx22-
    A|--00--033--300--x22xxx22xxx00--033--300--x22xxx00xxx00-
    D|-------33--300--x22xxx22xxx-----33--300--x22xxx00xxx---
    
    E|------------------------
    B|------------------------
    G|-2----------------------
    D|-233--300--x22xxx22xxx--
    A|-033--300--x22xxx22xxx--
    D|--33--300--x22xxx22xxx-- (Goes right into pre-chorus)
    
    Pre-Chorus:
    E|--------------------------------------------------
    B|--------------------------------------------------
    G|--22----------------------------------------------
    D|--22--22--2---33--22--2---00--22--2---22--22--2---
    A|--00----3--3--33----3--3--00----3--3--22----3--3--
    D|--------------33----------00----------22----------
    
    Chorus:
    E|---------------------------------------------------
    B|---------------------------------------------------
    G|----------------------------------(Chorus Outro)---
    D|--3-3-3--5-5-5--7-7-7--7-7-7-----33--33/55--55/77--
    A|--3-3-3--5-5-5--7-7-7--7-7-7-----33--33/55--55/77--
    D|--3-3-3--5-5-5--7-7-7--7-7-7-X2--33--33/55--55/77--
    
    Verse:
    E|-------------------------------------------------------
    B|-------------------------------------------------------
    G|--22--2--------------------22--2--------------------22-
    D|--22--233--300--x22xxx22xxx22--233--300--x22xxx00xxx22-
    A|--00--033--300--x22xxx22xxx00--033--300--x22xxx00xxx00-
    D|-------33--300--x22xxx22xxx-----33--300--x22xxx00xxx---
    
    E|------------------------
    B|------------------------
    G|-2----------------------
    D|-233--300--x22xxx22xxx--
    A|-033--300--x22xxx22xxx--
    D|--33--300--x22xxx22xxx--
    
    Pre-Chorus:
    E|--------------------------------------------------
    B|--------------------------------------------------
    G|--22----------------------------------------------
    D|--22--22--2---33--22--2---00--22--2---22--22--2---
    A|--00----3--3--33----3--3--00----3--3--22----3--3--
    D|--------------33----------00----------22----------
    
    2nd Chorus:
    E|-------------------------------------------------------
    B|-------------------------------------------------------
    G|--------(First Part)X2-------------(Second Part)X2-----
    D|--3-3-3--5-5-5--7-7-7--7-7-7---10-10-10--5-5-5--7-7-7--
    A|--3-3-3--5-5-5--7-7-7--7-7-7---10-10-10--5-5-5--7-7-7--
    D|--3-3-3--5-5-5--7-7-7--7-7-7---10-10-10--5-5-5--7-7-7--
    
    E|--------------------
    B|--------------------
    G|---(Chorus Outro)---
    D|--33--33/55--55/77--
    A|--33--33/55--55/77--
    D|--33--33/55--55/77--
    
    Verse:
    E|-------------------------------------------------------
    B|-------------------------------------------------------
    G|--22--2--------------------22--2--------------------22-
    D|--22--233--300--x22xxx22xxx22--233--300--x22xxx00xxx22-
    A|--00--033--300--x22xxx22xxx00--033--300--x22xxx00xxx00-
    D|-------33--300--x22xxx22xxx-----33--300--x22xxx00xxx---
    
    E|------------------------
    B|------------------------
    G|-2----------------------
    D|-233--300--x22xxx22xxx--
    A|-033--300--x22xxx22xxx--
    D|--33--300--x22xxx22xxx--
    
    
    Pre-Chorus:
    E|--------------------------------------------------
    B|--------------------------------------------------
    G|--22----------------------------------------------
    D|--22--22--2---33--22--2---00--22--2---22--22--2---
    A|--00----3--3--33----3--3--00----3--3--22----3--3--
    D|--------------33----------00----------22----------
    
    3rd Chorus:
    E|---------------------------------------------------------
    B|---------------------------------------------------------
    G|--------(First Part)X2--------------(Second Part)X1------
    D|--3-3-3--5-5-5--7-7-7--7-7-7---33333333/55555555/77777777
    A|--3-3-3--5-5-5--7-7-7--7-7-7---33333333/55555555/77777777
    D|--3-3-3--5-5-5--7-7-7--7-7-7---33333333/55555555/77777777
    
    E|------------------------------------------------
    B|-----------(Third Part)X1-----------------------
    G|------------------------------------------------
    D|77777777---10-10-10--5-5-5--7-7-7--3-3-3--0-0-0-
    A|77777777---10-10-10--5-5-5--7-7-7--3-3-3--0-0-0-
    D|77777777---10-10-10--5-5-5--7-7-7--3-3-3--0-0-0-
    
    E|-----------------------------------
    B|-----------------------------------
    G|-----------------------------------
    D|-2222222222222222/3-3-3--5-5-5--7--
    A|-2222222222222222/3-3-3--5-5-5--7--
    D|-2222222222222222/3-3-3--5-5-5--7--
     

    Тональность:

    Нет текста!



    Назад
    Рекомендуем посмотреть другие песни исполнителя «Papa Roach»:

    • Комментарии Facebook ()
    • Комментарии ВКонтакте



    Добавить в Избранное Браузера
    Сохранить здесь Очистить


    x

    0


    +
    -

    +
    -

    -

    Авторизация





    Зарегистрироваться

    M

    Дата и время

    • 21:17:49
       

    Социальные ссылки


    Наши приложения

    • Muzbank App Play Market
    • Muzbank Amazon App