MUZBANK



A Most Complete Bank Of Music Information

МУЗЫКАЛЬНО-ИНФОРМАЦИОННЫЙ БАНК

Поиск по сайту







    PPapa Roach • Time And Time Again (аккорды и текст - chords & lyrics)


    181

    Print

    Видео «Time And Time Again (Papa Roach)»

    Видео клипы к песне подбираются автоматически сайтом youtube. Возможны некоторые несоответствия клипов песне.

    ↑ Спрятать рекламу ↑



    Download



     
    
    
    tabbed by jay
    
    this song is so simple and great
    
    
    --23--3---6--5--34-----4---45----534-5-34-67
    ---4-----23--4-5----4----------5----------0-
    --324-----35----23-41-----54---54-----4-5--5
    -4----3--3----3-3-------------4-----4--4--4-
    
    well i have been playing for 16 years so i wont
    expect any of you to play it
    
    the next bit is simple
    
    00000000000000000000000000000000000000000000
    --------------------------------------------
    --------------------------------------------
    33333333333333333333333333333333333333333333
    
    
    the next bit is difficult but i can do it 
    
    
    ---6-6-65-34-6--56-87-67-8-45-234-565-7-57-
    --6-6-6--6-6--6-6--6-6--6-6-6-6-6-6-6-6-6--
    -0-0-0-0-0-0-0-0-0-0-0-0-0-0-0-0-0-0-0-0-0-
    -12-13346-7-47-67-34-55-78-435-6355-646457-
    
    
    
    ----------0-0-0--0-0-0-0-0-0-0-0-0--0-0--0-
    xxxxxxxxxxxxxxxxxxxxxxxxxxxxxxxxxxxxxxxxxxx
    xxxxxxxxxxxxxxxxxxxxxxxxxxxxxxxxxxxxxxxxxxx
    9191919191919191919191919191919191919191919
     

    Тональность:

    Нет текста!



    Назад
    Рекомендуем посмотреть другие песни исполнителя «Papa Roach»:

    • Комментарии Facebook ()
    • Комментарии ВКонтакте



    Добавить в Избранное Браузера
    Сохранить здесь Очистить


    x

    0


    +
    -

    +
    -

    -

    Авторизация





    Зарегистрироваться

    M

    Дата и время

    • 03:26:14
       

    Социальные ссылки


    Наши приложения

    • Muzbank App Play Market
    • Muzbank Amazon App