MUZBANK



A Most Complete Bank Of Music Information

МУЗЫКАЛЬНО-ИНФОРМАЦИОННЫЙ БАНК

Поиск по сайту







    PPapa Roach • Walking Through Barbed Wire (аккорды и текст - chords & lyrics)


    221

    Print

    Видео «Walking Through Barbed Wire (Papa Roach)»

    Видео клипы к песне подбираются автоматически сайтом youtube. Возможны некоторые несоответствия клипов песне.

    ↑ Спрятать рекламу ↑



    Download



     
    
    
    /=slide up
    =slide down
    x=stop the movement of your strings
    
    Its my first tab, but i think its pretty right!
    
    e------------------------------------
    b------------------------------------
    g------------------------------------  2 times
    d--7--7--7-3-3-2-2--7--7--7-3-3-2-2--
    a--7--7--7-3-3-2-2--7--7--7-3-3-2-2--
    e--5--5--5-1-1-0-0--5--5--5-1-1-0-0--
    
    e-------------------------------------------
    b-------------------------------------------
    g-------------------------------------------
    d--7--7--7/1515151515--7--7--7--1515151515--  2 times
    a--7--7--7/1515151515--7--7--7--1515151515--
    e--5--5--5/1313131313--5--5--5--1313131313--
    
    verse
    e---------------------------------------------------
    b---------------------------------------------------
    g---------------------------------------------------
    d-3-3-x-2-3-3-x-3-3-2-2-3-3-x-2-3-3-x-3-3-2-2-3-3 several
    a-3-3-x-2-3-3-x-3-3-2-2-3-3-x-2-3-3-x-3-3-2-2-3-3-times
    e-1-1-x-0-1-1-x-1-1-0-0-1-1-x-0-1-1-x-1-1-0-0-1-1--
    
    then the first part of the intro again and continue with the verse 
    
    Johannes Kresling
     

    Тональность:

    Нет текста!



    Назад
    Рекомендуем посмотреть другие песни исполнителя «Papa Roach»:

    • Комментарии Facebook ()
    • Комментарии ВКонтакте



    Добавить в Избранное Браузера
    Сохранить здесь Очистить


    x

    0


    +
    -

    +
    -

    -

    Авторизация





    Зарегистрироваться

    M

    Дата и время

    • 23:31:23
       

    Социальные ссылки


    Наши приложения

    • Muzbank App Play Market
    • Muzbank Amazon App