MUZBANK



A Most Complete Bank Of Music Information

МУЗЫКАЛЬНО-ИНФОРМАЦИОННЫЙ БАНК

Поиск по сайту







    PParadise Lost • Pity The Sadness (аккорды и текст - chords & lyrics)


    220

    Print

    Видео «Pity The Sadness (Paradise Lost)»

    Видео клипы к песне подбираются автоматически сайтом youtube. Возможны некоторые несоответствия клипов песне.

    ↑ Спрятать рекламу ↑



    Download


     
    
    
    Tuning: C# F# B E G# C#
    
    intro
    -----------------------------------------------------
    -----------------------------------------------------
    -----------------------------------------------------
    ----------------------------------6------------------
    ---3---6---8----------8-----3-3---4--6----8-----x-/--
    ---1---4---6----------6-----1-1------4----6-----x-/--
    
    main
    
    Guitar 1
    --------------------------------------------------------
    --------------------------------------------------------
    --------------------------------------------------------
    ----------------------------------8-----11--------------
    -3---3-3-3-3-3-3-3-3-3-3-3-3-3-3-----8---------8--------
    -1---1-1-1-1-1-1-1-1-1-1-1-1-1-1------------------9--11-
    Guitar2
    --------------------------------------------------------
    --------------------------------------------------------
    --------------------------------------------------------
    ----------------------------------------6-----5---------
    -3---3-3-3-3-3-3-3-3-3-3-3-3-3-3--8--6--4-----3--4--6---
    -1---1-1-1-1-1-1-1-1-1-1-1-1-1-1--6--4-----------2--4---
    
    
    Guitar1
    ------------------------------------------------------------------
    --6h7p6----------------------------------9--10--9h10p9-----11/14--
    --------8~~-----8/---3~~-----3/--11---11----------------11--------
    ------------------------------------------------------------------
    ------------------------------------------------------------------
    ------------------------------------------------------------------
    Guitar2
    ------------------------------------------------------------------
    ------------------------------------------------------------------
    ------------------------------------------------------------------
    --8---------------------------------------------------------------
    --6-----------------8------------9--------------11----------------
    --------------------6------------7--------------9-----------------
    
    
    Guitar1
    ------13---14---13h14p13--------13--14---13h14p13-------16~~------
    -14~~---------------------16~~---------------------16~~-------13/-
    ------------------------------------------------------------------
    ------------------------------------------------------------------
    ------------------------------------------------------------------
    ------------------------------------------------------------------
    Guitar2
    ------------------------------------------------------------------
    ------------------------------------------------------------------
    ------------------------------------------------------------------
    --8-----------------------------------------------------------11--
    --6-------------8-----------------------9---------------11----9---
    ----------------6-----------------------7----------------9--------
    
    Guitar1
    ---------------------------------
    ---------------------------------
    ---------------------------------
    --8~~---------11~~------------8--
    --------8~~----------8---11------
    ---------------------------------
    Guitar2
    -------------------------------
    -------------------------------
    -------------------------------
    -------------------------------
    -6~~-------9---------------6---
    ------6~~------6~~-----9-------
    
    
    Chorus
    
    Guitar1
    -----------------------------------------------------
    -----------------------------------------------------
    -----------------------------------------------------
    --8~~---------10-11-10-------11------8-------9-------
    ------------------------8----------8---11--------11--
    -----------------------------------------------------
    Guiatr2
    ----------------------------------------------------- !!!!!! (J
    -----------------------------------------------------
    -----------------------------------------------------
    -----------------------------------------------------
    --8---------------------3---------1----------2-------
    --6---------------------1----------------4-------4---
    
    Guitar1
    --------------------------------------------------
    --------------------------------------------------
    --------6--8-----6--------------6-----------------
    -----8--------------6-----8--8-----8-----6--------
    --------------9--------9--------------6-----------
    --6-----------------------------------------9--8--
    Guitar2
    -------------------------------------------------- !!!!!! (J
    --------------------------------------------------
    --------------------------------------------------
    --------------------------------------------------
    --8-----------4-----------8-----------3-----------
    --6-----------2-----------6-----------1-----------
    
    
    Solo
    
    Guitar1
    ----------------------------------------------------------------
    --9~~-----11-12--11h12p11p9----9----14)/14/14--/14---/14)14p12---
    ----------------------------11----------------------------------
    ----------------------------------------------------------------
    ----------------------------------------------------------------
    ----------------------------------------------------------------
    ----------------------------------------------------------------
    Guiter2
    ----------------------------------------
    ----------------------------------------
    ------------------8---------------------
    --10--------------6------------------6--
    --8----------------------------------4--
    ----------------------------------------
    
    Guitar1
    --14---------------21--
    -----14p12-------------
    -------------13~~------
    -----------------------
    -----------------------
    -----------------------
    Guitar2
    -----------------------
    -----------------------
    -----------------------
    -----------------------
    --3--------------------
    --1--------------------
    
    Guitar1
    -/21/21/21--/21/21)21--21-22-21-19-21-19-21-19/16h19p16h18p15h18p16--
    ------------------------------------------------------------------18~
    ---------------------------------------------------------------------
    ---------------------------------------------------------------------
    ---------------------------------------------------------------------
    ---------------------------------------------------------------------
    
    Guiter1
    -----------------16--------------------------------16---------------
    16-19-16-19-16-19--19-16-19-16-19-16-19-16-19-16-19--19-16-19-16-19-
    --------------------------------------------------------------------
    --------------------------------------------------------------------
    --------------------------------------------------------------------
    --------------------------------------------------------------------
    
    Guitar1
    -16--------------16--------------16--------------16---------------
    ---19-16-19-16-19--19-16-19-16-19--19-16-19-16-19--19-16-19-16-19-
    ------------------------------------------------------------------
    ------------------------------------------------------------------
    ------------------------------------------------------------------
    ------------------------------------------------------------------
    
    Guitar1
    --------------------------
    -18181816-----------------
    ---------18181816---------
    ------------------18~~~~~-
    --------------------------
    --------------------------
    
    Guitar1
    ----------------------------------------------------------19--------
    ---------------------19----19----19----19----19----19---------------
    ---------------18--------1818--1818--1818--1818--1818--18-----------
    --------16-18----------------------------------------------1616~~~--
    --16-18-------------------------------------------------------------
    --------------------------------------------------------------------
    
    Guitar1
    ------------------------------------------------------------16-19-21-
    ----------------------------------------------------------19---------
    -----------------------------------------------------15-18-----------
    ----------16-----------------16----------------16--18----------------
    ----16-18----18-----16----18----18-------16-18-----------------------
    -18--------------18-------------------18-----------------------------
    
    Guitar1
    ----------------------------------------
    ---19h16p19h16p19p16-23p19p16h19p16h19--
    ----------------------------------------
    ----------------------------------------
    ----------------------------------------
    ----------------------------------------
    
    Guitar1
    ------------------------------
    ---19-18-16--18-16------16~~~-
    -------------------18---------
    ------------------------------
    ------------------------------
    ------------------------------
    
    Guitar1
    -16h18p16h18p16h18-23p18p16h18p16h18--
    --------------------------------------
    --------------------------------------
    --------------------------------------
    --------------------------------------
    --------------------------------------
    
    Guitar1
    --18-16--------------------------------
    --------19-18-16-----------------------
    -----------------18-16-----------------
    -----------------------20-18-16--------
    --------------------------------20-16--
    
    Guitar1
    --------------------------------------------------------------------
    ------------------------------------------------------------9-------
    --10--------8--9--8-9-8--------------------------------8-10---10-9--
    ------------------------10-8-10~~~~--------------8-10---------------
    --------------------------------------------8-11--------------------
    ------------------------------------9~~~~~--------------------------
    
    Guitar1
    -------------------------------------------------------------------
    ----------8p9--8p9h8-------------------------------------9-----------10~~~--
    
    
    
    
    ------------10-8p10-10~~~~-----------------8-10---10-9----
    -----------------------------------------------8-10----------------
    ------------------------------------------8-11---------------------
    ------------------------------------9~~~~~-------------------------
    
    Outro
    
    Guitar1
    ----------9--------------9---11--11--
    --11---------------------------------
    ------10--------10--10---------------
    -------------------------------------
    -------------------------------------
    -------------------------------------
     

    Тональность:

    Нет текста!



    Назад
    Рекомендуем посмотреть другие песни исполнителя «Paradise Lost»:

    • Комментарии Facebook ()
    • Комментарии ВКонтакте



    Добавить в Избранное Браузера
    Сохранить здесь Очистить


    x

    0


    +
    -

    +
    -

    -

    Авторизация





    Зарегистрироваться

    M

    Дата и время

    • 17:24:04
       

    Социальные ссылки


    Наши приложения

    • Muzbank App Play Market
    • Muzbank Amazon App