MUZBANK



A Most Complete Bank Of Music Information

МУЗЫКАЛЬНО-ИНФОРМАЦИОННЫЙ БАНК

Поиск по сайту







    ППарк Горького • Two Candles (аккорды и текст - chords & lyrics)


    989

    Print

    Видео «Two Candles (Парк Горького)»

    Видео клипы к песне подбираются автоматически сайтом youtube. Возможны некоторые несоответствия клипов песне.

    ↑ Спрятать рекламу ↑



    Download


    Обозначения : F-флажолет.
    
    Intro
    
    E|----0------0------0-----0-----0-----0--0-----2--------5----7-|
    B|--0------0---10-------0-----0-----0--------0-------2------5--|
    G|9-----11------------7-----9-----5--------0-------0-------4---|
    D|---------------------------------------2---------------------|
    A|-----------------------------------------------3--------5----|
    E|------------------0------------------------------------------|
    
    
                 Здесь идёт быстрое арпеджио p,i,m,a,m,i
    E|5/6⁄5---5------------0-----0-----0---------0-----------0-----|
    B|------8----1/3-1/2-0--3---3-3---3-3------3---3-------3---5---|
    G|-----------2/4-3/4-0---5-5---5-5---5---5-------5---5-------5-|
    D|------------------------5-----5------5-----------4-----------|
    A|-------------------------------------------------------------|
    E|--0----------------------------------------------------------|
    
    E|----0---------0---------2---------3---------5------7--F7-----|
    B|--3---3-----0---0-----0---0-----0---0-----4--4----6-----6----|
    G|-5------5-0-------0-0-------0-0-------0-5------5-7--------7--|
    D|4--------2---------0---------2---------4--------6-----------6|
    A|-------------------------------------------------------------|
    E|-------------------------------------------------------------|
    
    E|7----7-5/7⁄5--------2/3⁄2⁄0---------------0--F12-------------|
    B|----5--------8-7-------------5--4--4/7---0---------F12----F7-|
    G|---5------------------------------------0-------F12----------|
    D|-----------------------------4-------------------------F7----|
    A|--0----------------3---------2--2----------------------------|
    E|------------------0--------------------0---------------------|
    
    Непосредственно проигрыш.
    1:   2 раза
    
       Гитара 1
    E|0-----3-----2--0-----3-----2---0-----3----2---2-----5-------2|
    B|----0-----0--------0-----0---------1----1---------3---3---3--|
    G|--0-----0----0---0-----0-----0---0----0-----0---2-------2----|
    D|-------------------------------2--------------4--------------|
    A|---------------3---------------------------------------------|
    E|0------------------------------------------------------------|
       Гитара 2
    E|-------0--0------------0--0------------0--0------------2--2--|
    B|-------0--0------------0--0------------1--1------------3--3--|
    G|-----0----0----------0----0----------0----0----------2----2--|
    D|---2------2--------2------2--------2------2--------4------4--|
    A|-2--------2------3--------3------0--------0------2--------2--|
    E|----------0--------------------------------------------------|
    
    
    2:   2 раза
        Гитара 1
    E|-0--------------------------------|
    B|---------0-------1-------3--------|
    G|-------0---0---0-----0-------0----|
    D|-----4-------4-----2---2---4---4--|
    A|---2-------------3-------5--------|
    E|-0--------------------------------|
        Гитара 2
    E|------0--------------0-------0----|
    B|-----0--------------1-------3-----|
    G|----0--------------0-------0------|
    D|---4--------------3-------4-------|
    A|--2--------------3-------5--------|
    E|-0--------------------------------|
    
    Куплет:
        Гитара 1
    E|0-------0---------------2--------------3--------------3------|
    B|------0---------0-----0--------------0--------------0--------|
    G|----0-------0-------2------2-------0------0-------0-------0--|
    D|--2-------2---2---1------1---1---0------0---0---0-------0---0|
    A|----------------2--------------------------------------------|
    E|0------------------------------3--------------3--------------|
    
    E|------1-----1------------------------------------------------|
    B|----1-----1------------3---------------1-------------1------1|
    G|--2-----2-----2-----1------1-------2-------2-------2------2--|
    D|0-----------------2---2--2---2---2---2---2---2---2------2----|
    A|----------------2--------------0---------------0-------------|
    E|------------------------------------------------------3------|
    
    E|------------------------1-----------------------------0------|
    B|--------1-------------1---1-------------0-----------0---0----|
    G|----2-------2-------2-------2-------0-------0-----0-------0--|
    D|--3---3---3---3---3-----------3---2---2---2---2-2-----------2|
    A|-------------------------------------------------------------|
    E|1---------------1---------------0--------------0-------------|
    
    E|----------------------2----------------------|--------2------|
    B|--------2-----------2---2-------------1------|---------------|
    G|----3-------3-----3-------3-------2-------2--|----2-------2--|
    D|--4---4---4---4-4-----------4---2---2---2---2|--1---1---1---1|
    A|------------------------------0--------------|2--------------|
    E|2--------------2-----------------------------|---------------|
                                         ^^^^^^^^^^^^^^^^^^^^^^^^^^
                                         В куплетах перед припевом
                                          это играется 2 раза.
       Гитара 2
     Если эту песню играть как инструменталку, то вторая гитара
    может играть вместо голоса. Желательно с какой нибудь
    приставкой типа Drive.
    
     куплет 1
    E|-0-7-7-5-3-5-7-7-5-5-7-4-4-4-0-8-5-5-5-7-8-10-7-5--3-3-3-7-5-|
    
    E|-2-2-2-3-2-2-5-7-8--12-11-
    
     куплет 2
    То же, только на тональность ниже.
    
    
    Припев:
    2 раза:
    Em,D*,C*,D*
    (D* - D с пустой первой струной)
    (C* - C с пустой второй струной)
    
    Вторая гитара может подигрывать терциями:
    
    E|-3-3--7-5-3--3-5-7--5-3-2-|-2-2-3----------------------------|
    B|-5-5--8-7-5--5-7-8--7-5-3-|-3-3-5----------------------------|
                              ^^^^^-Это играется только второй раз.
    
    Далее идёт проигрыш 1,2, куплет, проигрыш 1,
    а затем идёт следующее:
    
     Играется в 3/4, в отличии от всей остальной песни (4/4).
    
    Гитара1 (ритм):
    B|---0-------0---------0----------0-----------0/1-0-------0----|
    G|--0-0----2---2-----2---2-------2--2-------0-----------2---2--|
    D|-2---2-1-------1-0-------0---2------2---2-----------1-------1|
    A|------0--------------------0----------3-----------0----------|
    E|0---------------2--------------------------------------------|
    
    B|---0----------0-----------3---------3-----------0----------0-|
    G|--2-2-------2---2-------0---0-----0---0-------2---2-------2--|
    D|-0----0---2-------2---2-------2-2-------2---4-------4----4---|
    A|--------0-----------3----------3----------5-----------5-5----|
    E|2------------------------------------------------------------|
    
    Гитара2 (соло):
    
    E|-----7-8-7-5---7-5--7-5---7------7-8-7-5-7-----------------12|
    B|-5-8---------4----------4----5-8--------4--7-8-10-12-10-12---|
    G|------------------3--------5---------------------------------|
    
    E|----------------------8--7-----------------------------------|
    B|-12-10-13-12-10-8----------10-8-13-12-10-8-7-8-10------------|
    G|------------------9-7----------------------------------------|
    
     Затем идёт опять припев и проигрыш1,2
    
    
     Em        H7       G
     Loneliness   is my only guest
    Dm            E7          Am
       Who visits me alone at night
    F
      When it comes I light two candles
    Em
       Just the way it was
    F#                                  Am   H7
     And pretend the flames become your eyes
     Em       H7       G
     Emptiness  is a friend I guess
    Dm             E7             Am
      The shadow played upon the wall
    F
      If I let the candles take me
    Em
      I can see your face
    F#                                      Am  H7
     And remember hearing someone call your name
    
     chorus:
    
    Em               D             C      Hm
      My candles are crying, oo-oo-oo, oo-oo
    Em               D             C      Hm
      My candles are crying, oo-oo-oo, oo-oo
                        Em   C   Am  Hm
     They're crying for you
                        Em   C   Am  Hm
     They're crying for you
    
    
    Is it you knocking at my door
    Or may be just a ghostly wind
    How I wish that you were here
    Sitting by my side
    And you'll bring me back to life again tonight
    
    

    Тональность:

    Нет текста!



    Назад
    Рекомендуем посмотреть другие песни исполнителя «Парк Горького»:

    • Комментарии Facebook ()
    • Комментарии ВКонтакте



    Добавить в Избранное Браузера
    Сохранить здесь Очистить


    x

    0


    +
    -

    +
    -

    -

    Авторизация





    Зарегистрироваться

    M

    Дата и время

    • 07:12:06
       

    Социальные ссылки


    Наши приложения

    • Muzbank App Play Market
    • Muzbank Amazon App