MUZBANK



A Most Complete Bank Of Music Information

МУЗЫКАЛЬНО-ИНФОРМАЦИОННЫЙ БАНК

Поиск по сайту







    PParokya Ni Edgar • Absorbing Man (аккорды и текст - chords & lyrics)


    211

    Print

    Видео «Absorbing Man (Parokya Ni Edgar)»

    Видео клипы к песне подбираются автоматически сайтом youtube. Возможны некоторые несоответствия клипов песне.

    ↑ Спрятать рекламу ↑



    Download


     
    
    
    ABSORBING MAN
    Parokya ni Edgar
    
    johnsantos_17@yahoo.com
    
    standard tuning: (EADGBE)
    
    Intro:
    
    E-1-1h3p1--1--1--0---------------------
    B-3--------1--3--2---------------------
    G-2--------2--3--2--------0-2-0--------
    D-0--------3--3--2--0-2-3-------3-0----
    A----------3--1--0---------------------
    E----------1---------------------------
    
    Verse:
    
    E--1--1--1--0-
    B--3--1--3--2-
    G--2--2--3--2-
    D--0--3--3--2-play 2x
    A-----3--1--0-
    E-----1-------
    
    Chorus: (w/distortion)
    
    E---------------        ---------------
    B---------------        ---------------
    G-33--55--753-3-        --77--55--33--2-
    D-33--55--753-3-play 2x --77--55--33--2-
    A-11--33--531-1-        --55--33--11--0-
    E---------------        ----------------
    
    Adlib:
    
    E-1-1h3p1--1--1--0---------------------
    B-3--------1--3--2---------------------
    G-2--------2--3--2--------0-2-0--------
    D-0--------3--3--2--0-2-3-------3-0----play 2x
    A----------3--1--0---------------------
    E----------1---------------------------
    
    
    2nd chorus: (2x)
    
    E---------------        ---------------
    B---------------        ---------------
    G-33--55--753-3-        --77--55--33--2-
    D-33--55--753-3-play 2x --77--55--33--2-
    A-11--33--531-1-        --55--33--11--0-
    E---------------        ----------------
    
    2nd adlib & bridge:
    
    E--------------------
    B--11--13---151311-
    G--10--12---141210-continuous
    D--8---10---12108--w/flange effect
    A--------------------
    E--------------------
    
    =====()w&_17=====
     

    Тональность:

    Нет текста!



    Назад
    Рекомендуем посмотреть другие песни исполнителя «Parokya Ni Edgar»:

    • Комментарии Facebook ()
    • Комментарии ВКонтакте



    Добавить в Избранное Браузера
    Сохранить здесь Очистить


    x

    0


    +
    -

    +
    -

    -

    Авторизация





    Зарегистрироваться

    M

    Дата и время

    • 23:26:25
       

    Социальные ссылки


    Наши приложения

    • Muzbank App Play Market
    • Muzbank Amazon App