MUZBANK



A Most Complete Bank Of Music Information

МУЗЫКАЛЬНО-ИНФОРМАЦИОННЫЙ БАНК

Поиск по сайту







    PParokya Ni Edgar • Iwanan Mo Na Siya (аккорды и текст - chords & lyrics)


    197

    Print

    Видео «Iwanan Mo Na Siya (Parokya Ni Edgar)»

    Видео клипы к песне подбираются автоматически сайтом youtube. Возможны некоторые несоответствия клипов песне.

    ↑ Спрятать рекламу ↑



    Download



     
    
    
    IWANAN MO NA SIYA
    Parokya ni Edgar
    
    johnsantos_17@yahoo.com
    
    standard tuning: (EADGBE)
    
    Intro:
    
    E----4--2--0--------432--0--|---------
    B-2--5--3--0-----2--563--0--|---------
    G-2--4--2--1-----2--432--1--|---------
    D-2--6--4--2-----2--654--2--|---------
    A-0--4--2--2-----0--432--2--|-2-0-2-0-
    E----------0---------------0--|---------
    
    Verse:
    
    E----4--2--0-	    
    B-2--5--3--0- 	    
    G-2--4--2--1-	    
    D-2--6--4--2-play 4x
    A-0--4--2--2-
    E----------0-
    
    Pre-chorus:
    
    E-2--4---2--2--0---
    B-2--5---2--3--0---
    G-2--4---2--2--1---
    D-0--6---0--4--2---
    A----4------2--2---
    E--------------0---
    
    Chorus:
    
    E----4--2--0-        --2--4--2--4--2--0-	    
    B-2--5--3--0-        --2--5--2--5--3--0-
    G-2--4--2--1-        --2--4--2--4--2--1-
    D-2--6--4--2-        --0--6--0--6--4--2-
    A-0--4--2--2-play 2x -----4-----4--2--2-
    E----------0-        -----------------0-
    
    Adlib:
    
    E----4--2--0--------432--0--|---------
    B-2--5--3--0-----2--563--0--|---------
    G-2--4--2--1-----2--432--1--|---------
    D-2--6--4--2-----2--654--2--|---------
    A-0--4--2--2-----0--432--2--|-2-0-2-0-
    E----------0---------------0--|---------
    
    Refrain:
    
    E-2--4--2--4-|-2--4--2--0-0--
    B-2--5--2--5-|-2--5--3--0-0--
    G-2--4--2--4-|-2--4--2--2-1--
    D-0--6--0--6-|-0--6--4--2-2--
    A----4-----4-|----4--2--2-2--
    E------------|----------0-0--
    
    =====()w&_17=====
     

    Тональность:

    Нет текста!



    Назад
    Рекомендуем посмотреть другие песни исполнителя «Parokya Ni Edgar»:

    • Комментарии Facebook ()
    • Комментарии ВКонтакте



    Добавить в Избранное Браузера
    Сохранить здесь Очистить


    x

    0


    +
    -

    +
    -

    -

    Авторизация





    Зарегистрироваться

    M

    Дата и время

    • 17:40:00
       

    Социальные ссылки


    Наши приложения

    • Muzbank App Play Market
    • Muzbank Amazon App