MUZBANK



A Most Complete Bank Of Music Information

МУЗЫКАЛЬНО-ИНФОРМАЦИОННЫЙ БАНК

Поиск по сайту







    PParokya Ni Edgar • The Yes Yes Show (аккорды и текст - chords & lyrics)


    285

    Print

    Видео «The Yes Yes Show (Parokya Ni Edgar)»

    Видео клипы к песне подбираются автоматически сайтом youtube. Возможны некоторые несоответствия клипов песне.

    ↑ Спрятать рекламу ↑



    Download


     
    
    
    title: the yes yes show
    artist: Parokya ni Edgar
    transcribed by: richard santos 
    e-mail: meknowsall@yahoo.com
    
    intro:
    
    guitar 1
    
    e|---7----1---
    B|---8----2---
    G|---9----3---   (2x)
    D|---9----3---
    A|---7----1---
    E|---x----x---
    
    guitar 2
    
    e|--------------------------------------------
    B|-7h8-8-8-7h8-8-8-7h8-8/13-13-12----13-12----
    G|--------------------------------12-------12-  (2x)
    D|--------------------------------------------
    A|--------------------------------------------
    E|--------------------------------------------
    
    chorus:
    
    guitar 1
    
    e|---7----1---
    B|---8----2---
    G|---9----3---   (2x)
    D|---9----3---
    A|---7----1---
    E|---x----x---
    
    guitar 2
    
    e|-----7------------15------------7----------5-
    B|---8---8-------12----12-------8---8------5---
    G|-7-------7--12----------12--7-------7--5-----
    D|---------------------------------------------
    A|---------------------------------------------
    E|---------------------------------------------
    
    verse:
    
    guitar 1-same as the intro
    
    guitar 2-same as the intro
    
    __________________________________________________
    
    ENJOY!!!!!!!!!!!!!
    
    for any comments, just e-mail me...
     

    Тональность:

    Нет текста!



    Назад
    Рекомендуем посмотреть другие песни исполнителя «Parokya Ni Edgar»:

    • Комментарии Facebook ()
    • Комментарии ВКонтакте



    Добавить в Избранное Браузера
    Сохранить здесь Очистить


    x

    0


    +
    -

    +
    -

    -

    Авторизация





    Зарегистрироваться

    M

    Дата и время

    • 11:11:43
       

    Социальные ссылки


    Наши приложения

    • Muzbank App Play Market
    • Muzbank Amazon App