MUZBANK



A Most Complete Bank Of Music Information

МУЗЫКАЛЬНО-ИНФОРМАЦИОННЫЙ БАНК

Поиск по сайту







    PParokya Ni Edgar • Your Song (аккорды и текст - chords & lyrics)


    223

    Print

    Видео «Your Song (Parokya Ni Edgar)»

    Видео клипы к песне подбираются автоматически сайтом youtube. Возможны некоторые несоответствия клипов песне.

    ↑ Спрятать рекламу ↑



    Download


     
    
    
    YOUR SONG (track 17 of Bigotilyo)
    Parokya ni Edgar
    
    johnsantos_17@yahoo.com
    
    Standard tuning: (EADGBE)
    Capo on 2nd fret
    
    Verse:
    
    E------0--2--2-		-0--2--0-0-0-
    B-0/2--0--2--3-		-2--3--0-0-0-
    G-2-2--1--2--2-		-2--2--1-2-1-
    D-2-2--2--4--0-play 3x 	-2--0--2-2-2-
    A-0-0--2--4----		-0-----2-2-2-
    E------0--2----		-------0-0-0-
    
    Chorus:
    
    E-0-0--0--2--2-
    B-0/2--0--3--2-
    G-2-2--1--2--21-
    D-2-2--2--0--42-play 2x
    A-0-0--2-----42-
    E------0-----2-
    
    Adlib:
    
    E-0-0--0--2--2-3-2----
    B-0/2--0--2--3-3-3----
    G-2-2--1--2--2-2-2----
    D-2-2--2--4--0-0-0----
    A-0-0--2--4-----------
    E------0--2-----------
    
    Refrain:
    
    E-2--0--2-3-2--
    B-2--0--3-3-3--
    G-2--1--2-2-2--play 2x
    D-4--2--0-0-0--
    A-4--2---------
    E-2--0---------
    
    2nd chorus:
    
    E-0-0--0--2--2-        -0-
    B-0/2--0--3--2-        -2-
    G-2-2--1--2--21-        -2-
    D-2-2--2--0--42-play 4x -2-
    A-0-0--2-----42-        -0-
    E------0-----2-        ---
    
    =====()w&_17=====
     

    Тональность:

    Нет текста!



    Назад
    Рекомендуем посмотреть другие песни исполнителя «Parokya Ni Edgar»:

    • Комментарии Facebook ()
    • Комментарии ВКонтакте



    Добавить в Избранное Браузера
    Сохранить здесь Очистить


    x

    0


    +
    -

    +
    -

    -

    Авторизация





    Зарегистрироваться

    M

    Дата и время

    • 05:18:36
       

    Социальные ссылки


    Наши приложения

    • Muzbank App Play Market
    • Muzbank Amazon App