MUZBANK



A Most Complete Bank Of Music Information

МУЗЫКАЛЬНО-ИНФОРМАЦИОННЫЙ БАНК

Поиск по сайту







    PPennywise • Falling Down (аккорды и текст - chords & lyrics)


    182

    Print

    Видео «Falling Down (Pennywise)»

    Видео клипы к песне подбираются автоматически сайтом youtube. Возможны некоторые несоответствия клипов песне.

    ↑ Спрятать рекламу ↑



    Download


     
    
    
    intro
    D|10101010----131311111111----1515|
    A|--------1111------------1313----|REPEAT AS NEEDED
    E|--------------------------------|
    
    D|--------------------------|
    A|1010--1111--1010--1111--88|
    E|-8-8---9-9---8-8---9-9--66|
    
    D|------------------------------------------------------------
    A|10101010101010101111111188881010101010101010111111113131313-
    E|8-8-8-8-8-8-8-8-9-9-9-9-66668-8-8-8-8-8-8-8-9-9-9-911111111-
    
    D|--------------------------------------------------------------
    A|10101010101010101111111188881010101010101010--11-1111-13-1313-
    E|8-8-8-8-8-8-8-8-9-9-9-9-66668-8-8-8-8-8-8-8---9---9-9-11-1111-
    
    D|-------------------------------------------------------------------------
    A|101010--111111--11--1111--101010--131313-13-1313-101010--111111--11--1111
    E|-8-8-8---9-9-9---9---9-9---8-8-8--111111-11-1111--8-8-8---9-9-9---9---9-9
    
    D|88-8-88-10-1010-8-10-|
    A|66-6-66--8--8-8-6--8-|
    E|---------------------|
    
    VERSE
    IT contains first part of the intro for few times then this:
    D|55-555-6-66-8-88-55-555-6-66-6-66-55-555-6-66-8-88-55-555-6-66-6-66-
    A|33-333-4-44-6-66-33-333-4-44-4-44-33-333-4-44-6-66-33-333-4-44-4-44-
    E|--------------------------------------------------------------------
    
    D|----------------|
    A|1010101010101010|PICK SLIDE
    E|-8-8-8-8-8-8-8-8|
       ******PM*******
    
    CHORUS(EACH CHORD X12)
    D|5--6-----8--|
    A|3--4--6--6--|X2
    E|------4-----|
    
    repeat:
    verse 
    chorus
    
    BRIDGE
    D|XX3-555-66---|---|----------------|
    A|XX3-333-44-88|X8-|1010101010101010|PICK SLIDE
    E|-----------66|---|-8-8-8-8-8-8-8-8|
                        *******PM*******
    REPEAT CHORUS
    
    ENDING
    D|XX5-XX58-XX8XX810-|
    A|XX3-XX36-XX6XX68--|
    E|------------------|
    
    THATS IT I GUESS .PEACE!!!!
     

    Тональность:

    Нет текста!



    Назад
    Рекомендуем посмотреть другие песни исполнителя «Pennywise»:

    • Комментарии Facebook ()
    • Комментарии ВКонтакте



    Добавить в Избранное Браузера
    Сохранить здесь Очистить


    x

    0


    +
    -

    +
    -

    -

    Авторизация





    Зарегистрироваться

    M

    Дата и время

    • 00:52:16
       

    Социальные ссылки


    Наши приложения

    • Muzbank App Play Market
    • Muzbank Amazon App