MUZBANK



A Most Complete Bank Of Music Information

МУЗЫКАЛЬНО-ИНФОРМАЦИОННЫЙ БАНК

Поиск по сайту







    PPennywise • Greed (аккорды и текст - chords & lyrics)


    232

    Print

    Видео «Greed (Pennywise)»

    Видео клипы к песне подбираются автоматически сайтом youtube. Возможны некоторые несоответствия клипов песне.

    ↑ Спрятать рекламу ↑



    Download



     
    
    
    Greed/Pennywise
                                   Album: Straight Ahead
    
    Tabbed by Jonathan St-Pierre
    
    Intro:
    G|----------|
    D|----------|
    A|-------46-|
    E|-1-4-6----|
    
    
    Part 1:
    G|---------------------|-------------------|
    D|---------------------|-------------------|
    A|---------------------|-----------444-666-|
    E|-1111-1111-4444-4444-|-6666-6666---------|
    
    Fill 1:
    1E|-1111-1111-|
    
    Part 2:
                (x3)                               (x4)
    G|-------------|----------------------|-----------|
    D|*------------|---------------------*|-----------|
    A|*-----1-4-66-|-6666-6666-4444-4444-*|-----------|
    E|-1-4---------|----------------------|-1111-1114-|
    
    
    Part 3:                            (x3)                                 (x1)
    G|------------------------------------|------------------------------------|
    D|--------------2---------------------|--------------2---------------------|
    A|-6666-6666-666----------------------|-6666-6666-666--4444-4444-----------|
    E|----------------4444-4444-6666-6666-|--------------------------6666-6666-|
    
    Fill 2:
    G|---|----------|
    D|---|*--------*|
    A|---|*--------*| 
    E|-1-|-66-4-4-1-|
        

    Тональность:

    Нет текста!



    Назад
    Рекомендуем посмотреть другие песни исполнителя «Pennywise»:

    • Комментарии Facebook ()
    • Комментарии ВКонтакте



    Добавить в Избранное Браузера
    Сохранить здесь Очистить


    x

    0


    +
    -

    +
    -

    -

    Авторизация





    Зарегистрироваться

    M

    Дата и время

    • 22:24:55
       

    Социальные ссылки


    Наши приложения

    • Muzbank App Play Market
    • Muzbank Amazon App