MUZBANK



A Most Complete Bank Of Music Information

МУЗЫКАЛЬНО-ИНФОРМАЦИОННЫЙ БАНК

Поиск по сайту







    PPennywise • Holiday In The Sun (аккорды и текст - chords & lyrics)


    212

    Print

    Видео «Holiday In The Sun (Pennywise)»

    Видео клипы к песне подбираются автоматически сайтом youtube. Возможны некоторые несоответствия клипов песне.

    ↑ Спрятать рекламу ↑



    Download


     
    
    
    It s on the new very good album. song 8 its standart tuning.
    
    let`s go:
    
    Intro
    e----------------------            ------------
    b----------------------            ------------
    g--9xxx------7xxx------ at the end ------------
    d--9xxx-5xxx-7xxx-9xxx-            ---9-7-9-12-
    a--7xxx-5xxx-5xxx-9xxx-            ---9-7-9-12-
    e-------3xxx------7xxx-            ---7-5-7-10-
    
    Verse:
    
    the same but no mute
    
    e--------------------------
    b--------------------------
    g--9999------7777----------
    d--9999-5555-7777-99-7-9---
    a--7777-5555-5555-99-7-9---
    e-------3333------77-5-7-10h
    
    Pre chorus:
    e----------------------
    b----------------------
    g----------------------
    d--7-7-7-7--9-9-9-9----  pick slide
    a--7-7-7-7--9-9-9-9----
    e--5-5-5-5--7-7-7-7----   
    pm..................
    
    Chorus same as Verse but other rythm
    
    Solo (it`s not 100%)
    
    e------------------------------------------------------------------
    b------------------------------------------------------------------ 
    g--7---10-12-10-7---10-12-10-7~~7---10-12-10-7---10-12-10--12~-11--
    d------------------------------------------------------------------
    a------------------------------------------------------------------
    e------------------------------------------------------------------
    
    e-----------------------------------------------------
    b-----------------------------------------------------
    g--11~~~~~~-12~~~~~~-14~~~~~14^^^^^^------------------
    d-------------------------------------55-444----------
    a--------------------------------------------55-44-22-
    e-----------------------------------------------------
    
    bridge
    e----------------
    b----------------
    g--55555--77777--
    d--55555--77777--
    a--33333--55555--
    e----------------
    
    
    questions e mail: Tom_cobain@hotmail.com   
    HAVE Fun :-)
     

    Тональность:

    Нет текста!



    Назад
    Рекомендуем посмотреть другие песни исполнителя «Pennywise»:

    • Комментарии Facebook ()
    • Комментарии ВКонтакте



    Добавить в Избранное Браузера
    Сохранить здесь Очистить


    x

    0


    +
    -

    +
    -

    -

    Авторизация





    Зарегистрироваться

    M

    Дата и время

    • 23:37:52
       

    Социальные ссылки


    Наши приложения

    • Muzbank App Play Market
    • Muzbank Amazon App