MUZBANK



A Most Complete Bank Of Music Information

МУЗЫКАЛЬНО-ИНФОРМАЦИОННЫЙ БАНК

Поиск по сайту







    PPennywise • My Own Way (аккорды и текст - chords & lyrics)


    228

    Print

    Видео «My Own Way (Pennywise)»

    Видео клипы к песне подбираются автоматически сайтом youtube. Возможны некоторые несоответствия клипов песне.

    ↑ Спрятать рекламу ↑



    Download


     
    
    
    My own way/Pennywise
                                   Album: Straight Ahead
    
    Tabbed by Jonathan St-Pierre
    
    Intro, Fill:
    G|---------9------|
    D|-----------10---|
    A|-7--/7--------7-|
    E|---0------------|
    
    
    Verse:
    G|------------------------------|
    D|------------------------------|
    A|---53-53---53-75---53-53---57-| (x2)
    E|-0-------0-------0-------0----|
    
    
    Pre-Chorus:
    G|---------------------------------|
    D|---------------------------------|
    A|---53-53---53-75---53-53---53-7--| (x2)
    E|-0-------0-------0-------0-----5-|
    
    
    Chorus:
    G|-------|-------|-------|------|
    D|-------|-------|-------|------|
    A|-3---5-|-3---5-|-3---5-|-3--5-|
    E|---5---|---5---|---5---|------|
    
    
    Bridge:
    G|---------------------------------------------|
    D|---------------------------------------------|
    A|---/7---/19---19----19-------19--------------|
    E|-0---------20----20----17-20-----20-17-15-12-|
    
    After, play...
      Pre-Chorus (x2)
      Chorus
      Fill
      Verse
      
    ********----------------------------------********
        For the 2nd half of the song, just follow!
    
                     / 

    Тональность:

    Нет текста!



    Назад
    Рекомендуем посмотреть другие песни исполнителя «Pennywise»:

    • Комментарии Facebook ()
    • Комментарии ВКонтакте



    Добавить в Избранное Браузера
    Сохранить здесь Очистить


    x

    0


    +
    -

    +
    -

    -

    Авторизация





    Зарегистрироваться

    M

    Дата и время

    • 07:13:05
       

    Социальные ссылки


    Наши приложения

    • Muzbank App Play Market
    • Muzbank Amazon App