MUZBANK



A Most Complete Bank Of Music Information

МУЗЫКАЛЬНО-ИНФОРМАЦИОННЫЙ БАНК

Поиск по сайту







    PPennywise • Not Far Away (аккорды и текст - chords & lyrics)


    197

    Print

    Видео «Not Far Away (Pennywise)»

    Видео клипы к песне подбираются автоматически сайтом youtube. Возможны некоторые несоответствия клипов песне.

    ↑ Спрятать рекламу ↑



    Download



     
    
    
    Band: Pennywise
    Song: Not far away
    tabbed by: Dave Parisi
    intro x2
    
    G]---------------------------------------------------------------------------
    
    D]---------------------------------------------------------------------------
    
    A]----8-7-------8-7-------8-7-8-10-8-7-------------------------------
    E]-5-------8-5-------8-5--------------------8----------------------------
    
    verse 1 & 2
    
    G]----------------------------------------------------------------------------------------------------------------
    
    D]----------------------------------------------------------------------------------------------------------------
    
    A]---------7-7-7-8-8-8-8-7-7-7----------------------8-8-8-8-7-7-7-------------------7-7-7-8-8-8-8-----------------
    
    E]-5-5-5----------------------------8-8-8-8---5-5-5---------------------8-8-8--5-5-5--------------------8-8-8-8-5-5
    
    pre chorus
    
    G]------------------------------------- 

    Тональность:

    Нет текста!



    Назад
    Рекомендуем посмотреть другие песни исполнителя «Pennywise»:

    • Комментарии Facebook ()
    • Комментарии ВКонтакте



    Добавить в Избранное Браузера
    Сохранить здесь Очистить


    x

    0


    +
    -

    +
    -

    -

    Авторизация





    Зарегистрироваться

    M

    Дата и время

    • 22:48:35
       

    Социальные ссылки


    Наши приложения

    • Muzbank App Play Market
    • Muzbank Amazon App