MUZBANK



A Most Complete Bank Of Music Information

МУЗЫКАЛЬНО-ИНФОРМАЦИОННЫЙ БАНК

Поиск по сайту







    PPennywise • Peaceful Day (аккорды и текст - chords & lyrics)


    183

    Print

    Видео «Peaceful Day (Pennywise)»

    Видео клипы к песне подбираются автоматически сайтом youtube. Возможны некоторые несоответствия клипов песне.

    ↑ Спрятать рекламу ↑



    Download


     
    
    
    -------------------------------------------------------------------------------
    			    PEACEFUL DAY - Pennywise
    -------------------------------------------------------------------------------
    Tabbed by: strungout777
    Email: manuel_ramones4life@gmx.at
    
    Tuning: e B G D A E
    
    Intro:
    e|------------------------|
    B|-----6~--6~--8-6-8-6----|
    G|-7~--x---x---x-x-x-x-7~-|
    D|-7~--7~--7~--7-7-7-7-7~-|
    A|-5~------------------5~-|
    E|------------------------|
    
    e|-------------------------------------------------|
    B|-------------------------------------------------|
    G|-7-7777-7-10-9-5-555--7-77-10-1010-12-12-14-1414-|
    D|-7-7777-7-10-9-5-555--7-77--x--x-x--x--x--x--x-x-|
    A|-5-5555-5--8-7-3-333--5-55--8--8-8-10-10-12-1212-|
    E|-------------------------------------------------|
    
    e|----------------------------------------|
    B|----------------------------------------|
    G|-7-7777-7-10-9-5-555--------------------|
    D|-7-7777-7-10-9-5-555--8-8888-8-7-7-3-33-|
    A|-5-5555-5--8-7-3-333--8-8888-8-7-7-3-33-|
    E|----------------------6-6666-6-5-5-1-11-|
    
    e|-------------------------------------------------|
    B|-------------------------------------------------|
    G|-7-7777-7-10-9-5-555--7-77-10-1010-12-12-14-1414-|
    D|-7-7777-7-10-9-5-555--7-77--x--x-x--x--x--x--x-x-|
    A|-5-5555-5--8-7-3-333--5-55--8--8-8-10-10-12-1212-|
    E|-------------------------------------------------|
    
    e|----------------------------------------|
    B|----------------------------------------|
    G|-7-7777-7-10-9-5-555--------------------|
    D|-7-7777-7-10-9-5-555--8-8888-8-7-7-3-33-|
    A|-5-5555-5--8-7-3-333--8-8888-8-7-7-3-33-|
    E|----------------------6-6666-6-5-5-1-11-|
    
    Verse:
    e|----------------------------------------------------------------------|
    B|----------------------------------------------------------------------|
    G|-7------7-10-9-5--7------7-10-9-5--7------7-10-9-5--------------------|
    D|-7-7777-7-10-9-5--7-7777-7-10-9-5--7-7777-7-10-9-5--8-8888-8-7-7-33-7-| 2x
    A|-5-5555-5--8-7-3--5-5555-5--8-7-3--5-5555-5--8-7-3--8-8888-8-7-7-33-7-|
    E|----------------------------------------------------6-6666-6-5-5-11-5-|
    
    Chorus:
    e|------------------------------------------|
    B|------------------------------------------|
    G|-7-7777-7-10-10101010-10-3-3333-3-5-5-3-2-|
    D|-7-7777-7-10-10101010-10-3-3333-3-5-5-3-2-| 2x
    A|-5-5555-5--8--8-8-8-8--8-1-1111-1-3-3-1-0-|
    E|------------------------------------------|
    
    e|---------------------------------------------------------------------------|
    B|---------------------------------------------------------------------------|
    G|-7-7777-10-10101010-12-12121212-5-5555-7-7777-3-3333-----------------------|
    D|-7-7777-10-10101010-12-12121212-5-5555-7-7777-3-3333-7~--------------------|
    A|-5-5555--8--8-8-8-8-10-10101010-3-3333-5-5555-1-1111-7~--------------------|
    E|-----------------------------------------------------5~--------------------|
    
    Bridge1:
    e|-------------------------------------|
    B|----66----66----66-------------------|
    G|-77-xx-77-xx-77-xx-------------------|
    D|-77-77-77-77-77-77-8-8888-8-7-7-3-33-|
    A|-55----55----55----8-8888-8-7-7-3-33-|
    E|-------------------6-6666-6-5-5-1-11-|
    
    Verse:
    
    Chorus:
    
    Bridge2:
    e|--------------------9b-----|
    B|----66----66----66--9b-9b~-|
    G|-77-xx-77-xx-77-xx---------|
    D|-77-77-77-77-77-77---------|
    A|-55----55----55------------|
    E|---------------------------|
    
    e|------------------------------------------------------------------------------|
    B|------------------------------------------------------------------------------|
    G|------9-10-----------------------9-10-------------------9-10------------------|
    D|-7777-9-10-----88-1010-8-10-7777-9-10-----88-77-33-7777-9-10-----88-1010-8-10-|
    A|-5555-7--8-888888-1010-8-10-5555-7--8-888888-77-33-5555-7--8-888888-1010-8-10-|
    E|-----------666666--8-8-6--8-----------666666-55-11-----------666666--8-8-6--8-|
    
    e|--------------------------|
    B|--------------------------|
    G|------9-10----------------|
    D|-7777-9-10-8-8888-777-333-|
    A|-5555-7--8-8-8888-777-333-|
    E|-------------6666-555-111-|
    
    Verse:
    
    Chorus:
    
    Outro:
    e|---------------------------------------|
    B|---------------------------------------|
    G|-7-7777-10-10101010-7-7777-121212-1010-|
    D|-7-7777-10-10101010-7-7777-121212-1010-|
    A|-5-5555--8--8-8-8-8-5-5555-101010--8-8-|
    E|---------------------------------------|
    
    
    | /  slide up
    |   slide down
    | h  hammer-on
    | p  pull-off
    | ~  vibrato
    | +  harmonic
    | x  Mute note
    ===============================================================================
     

    Тональность:

    Нет текста!



    Назад
    Рекомендуем посмотреть другие песни исполнителя «Pennywise»:

    • Комментарии Facebook ()
    • Комментарии ВКонтакте



    Добавить в Избранное Браузера
    Сохранить здесь Очистить


    x

    0


    +
    -

    +
    -

    -

    Авторизация





    Зарегистрироваться

    M

    Дата и время

    • 19:44:05
       

    Социальные ссылки


    Наши приложения

    • Muzbank App Play Market
    • Muzbank Amazon App