MUZBANK



A Most Complete Bank Of Music Information

МУЗЫКАЛЬНО-ИНФОРМАЦИОННЫЙ БАНК

Поиск по сайту







    ППесни из кинофильмов • Ланфрен-ланфра (аккорды и текст - chords & lyrics)


    1214

    Print

    Видео «Ланфрен-ланфра (Песни из кинофильмов)»

    Видео клипы к песне подбираются автоматически сайтом youtube. Возможны некоторые несоответствия клипов песне.

    ↑ Спрятать рекламу ↑



    Download


             Dm7                          Gm7
      В мой старый сад, ланфрен-ланфра, лети, моя голубка.
            C                           Fmaj7          D-9
      Там сны висят, ланфрен-ланфра, на всех ветвях, голубка.
          Gm7            A7           Dm7            B
      Ланфрен-ланфра-лантатита - там свеж ручей, трава густа,
         Gm7           C           Dm7
      Постель из ландышей пуста, лети в мой сад, голубка!
    
         Dm7                             Gm7
      Мы легкий сон, ланфрен-ланфра, сорвем с тяжелой ветки.
            С                           Fmaj7        D-9
      Как сладок он - ланфрен-ланфра - такие сны так редки.
          Gm7            A7          Dm7         B
      Ланфрен-ланфра-лантатита – но слаще сна твои уста
         Gm7     C            Dm7
      И роза падает с куста тебе на грудь, голубка!
    
         Dm7                         Gm7
      В моем саду, ланфрен-ланфра - три соловья и ворон.
        С                          Fmaj7        D-9
      Они беду, ланфрен-ланфра - любви пророчат хором.
          Gm7            A7         Dm7          B
      Ланфрен-ланфра-лантатита – свети, прощальная звезда,
        Gm7          C          Dm7
      Любовь последняя чиста. Лети в мой сад, голубка!
    
       Dm                             B
    e|----0--1--1------------------|-----0--1---1--------------------|
    H|-3--------3--3---------------|--3---------3--3-----------------|
    G|-2--------2-----2------2-----|--3---------3-----3------3-------|
    D|-0--------0---------------0--|------------------------------3--|
    A|-------------------0---------|--1---------1--------1-----------|
    E|-----------------------------|---------------------------------|
    
       C                              Dm                                                             
    e|-0--1--3--3--0------------0--|--1--0--------------------1------|
    H|-1--------1------1-----1-----|--3-----3--3--------------3------|
    G|-0--------0---------0--------|--2--------2----------2------2---|
    D|-----------------------------|--0--------0-------0-------------|
    A|-3--------3------3-----------|----------------0----------------|
    E|-----------------------------|---------------------------------|
    
    
    
    Аккорды:
       I                         IV                        III
    e|---|---|---|---| Fmaj7   e|-x-|-x-|---|---| D-9    e|-x-|---|---|---| Gm7
    H|-x-|---|---|---|	   H|-x-|---|---|---|        H|-x-|---|---|-x-|
    G|---|-x-|---|---|         G|-x-|-x-|---|---|        G|-x-|---|---|---|
    D|---|---|-x-|---|         D|-x-|---|---|---|        D|-x-|---|-x-|---|
    X|---|---|---|---|         A|-x-|-x-|---|---|        A|-x-|---|-x-|---|
    X|---|---|---|---|         X|---|---|---|---|        E|-x-|---|---|---|
    
    
    

    Тональность:

    Отправитель: Киноман

    Нет текста!



    Назад
    Рекомендуем посмотреть другие песни исполнителя «Песни из кинофильмов»:

    • Комментарии Facebook ()
    • Комментарии ВКонтакте



    Добавить в Избранное Браузера
    Сохранить здесь Очистить


    x

    0


    +
    -

    +
    -

    -

    Авторизация





    Зарегистрироваться

    M

    Дата и время

    • 09:02:00
       

    Социальные ссылки


    Наши приложения

    • Muzbank App Play Market
    • Muzbank Amazon App