MUZBANK



A Most Complete Bank Of Music Information

МУЗЫКАЛЬНО-ИНФОРМАЦИОННЫЙ БАНК

Поиск по сайту







    PPetty Tom • I Wont Back Down (аккорды и текст - chords & lyrics)


    199

    Print

    Видео «I Wont Back Down (Petty Tom)»

    Видео клипы к песне подбираются автоматически сайтом youtube. Возможны некоторые несоответствия клипов песне.

    ↑ Спрятать рекламу ↑



    Download


     
    
    
    (Moderately fast)
    
    Intro
    
       1 + 2 + 3 + 4 + ....
    E |----------------|----------------|
    B |----------------|----------------|
    G |----------------|----------------|  (x2)
    D |9-9-9-9-7-7-7-5-|5-5-5-5-5-5-5-5-|
    A |7-7-7-7-5-5-5-5-|5-5-5-5-5-5-5-5-|
    E |--------------3-|3-3-3-3-3-3-3-3-|
    
      P.M.----------------------------- (i.e. palm muting)
    
    
    
    Verse
    
    
    E |----------------|----------------|----------------|----------------|
    E |----------------|----------------|----------------|----------------|
    B |----------------|----------------|----------------|----------------|
    G |----------------|----------------|----------------|----------------|
    D |9-9-9-9-7-7-7-5-|5-5-5-5-5-5-5-5-|9-9-9-9-7-7-7-5-|5-5-5-5-5-5-5-5-|
    A |7-7-7-7-5-5-5-5-|5-5-5-5-5-5-5-5-|7-7-7-7-5-5-5-5-|5-5-5-5-5-5-5-5-|
    E |--------------3-|3-3-3-3-3-3-3-3-|--------------3-|3-3-3-3-3-3-3-3-|
    
      P.M.-----------------------------------------------------------------
    
    
    E |----------------|----------------|----------------|----------------|
    B |----------------|----------------|----------------|----------------|
    G |----------------|----------------|----------------|----------------|
    D |9-9-9-9-7-7-7-5-|5-5-5-5-5-5-5-5-|9-9-9-9-7-7-7-5-|5-5-5-5-5-5-5-5-|
    A |7-7-7-7-5-5-5-3-|3-3-3-3-3-3-3-3-|7-7-7-7-5-5-5-5-|5-5-5-5-5-5-5-5-|
    E |----------------|----------------|--------------3-|3-3-3-3-3-3-3-3-|
    
    P.M.-----------------------------------------------------------------
    
    Play through the above 8 bars twice then..
    
    
    
    Chorus
    
    
    E |----------------|----------------|----------------|----------------|
    B |----------------|----------------|----------------|----------------|
    G |----------------|--------5-----5-|--5-5-5-5-----7-|--7-7-7-7-----5-|
    D |9-9-9-9-7-7-7-5-|5-5-5-5-5-5---5-|--5-5-5-5-5---7-|--7-7-7-7-5---5-|
    A |7-7-7-7-5-5-5-5-|5-5-5-5-3-5---3-|--3-3-3-3-5---5-|--5-5-5-5-5---3-|
    E |--------------3-|3-3-3-3---3-----|----------3-----|----------3-----|
    
      P.M.------------------| ^ ^ ^
    
    E |----------------|----------------|----------------|----------------|
    B |----------------|----------------|----------------|----------------|
    G |--5-5-5-5-----7-|--7-7-7-7-----5-|--5-5-5-5-----7-|7-7-7-7-7-7-7-7-|
    D |--5-5-5-5-5---7-|--7-7-7-7-5---5-|--5-5-5-5-5---7-|7-7-7-7-7-7-7-7-|
    A |--3-3-3-3-5---5-|--5-5-5-5-5---3-|--3-3-3-3-5---5-|5-5-5-5-5-5-5-5-|
    E |----------3-----|----------3-----|----------3-----|----------------|
    
    
    E |----------------|----------------|----------------|----------------|
    B |----------------|----------------|----------------|----------------|
    G |----------------|----------------|----------------|----------------|
    D |9-9-9-9-7-7-7-5-|5-5-5-5-5-5-5-5-|9-9-9-9-7-7-7-5-|5-5-5-5-5-5-5-5-|
    A |7-7-7-7-5-5-5-5-|5-5-5-5-5-5-5-5-|7-7-7-7-5-5-5-5-|5-5-5-5-5-5-5-5-|
    E |--------------3-|3-3-3-3-3-3-3-3-|--------------3-|3-3-3-3-3-3-3-3-|
    
      P.M.-----------------------------------------------------------------
    
    
    
    Chorus 2 (the repeated one just before the Outro)
    
    
    This is basically just the first 8 bars of the chorus repeated twice.
    
    E |----------------|----------------|----------------|----------------|
    B |----------------|----------------|----------------|----------------|
    G |----------------|--------5-----5-|--5-5-5-5-----7-|--7-7-7-7-----5-|
    D |9-9-9-9-7-7-7-5-|5-5-5-5-5-5---5-|--5-5-5-5-5---7-|--7-7-7-7-5---5-|
    A |7-7-7-7-5-5-5-5-|5-5-5-5-3-5---3-|--3-3-3-3-5---5-|--5-5-5-5-5---3-|
    E |--------------3-|3-3-3-3---3-----|----------3-----|----------3-----|
    
      P.M.------------------| ^ ^ ^
    
    E |----------------|----------------|----------------|----------------|
    B |----------------|----------------|----------------|----------------|
    G |--5-5-5-5-----7-|--7-7-7-7-----5-|--5-5-5-5-----7-|7-7-7-7-7-7-7-7-|
    D |--5-5-5-5-5---7-|--7-7-7-7-5---5-|--5-5-5-5-5---7-|7-7-7-7-7-7-7-7-|
    A |--3-3-3-3-5---5-|--5-5-5-5-5---3-|--3-3-3-3-5---5-|5-5-5-5-5-5-5-5-|
    E |----------3-----|----------3-----|----------3-----|----------------|
    
    Play the above 8 bars through twice.
    
    
    Outro
    
    
    Play the intro riff then..
    
    E |----------------|
    B |----------------|
    G |----------------|
    D |9-9-9-9-7-7-7-5-|
    A |7-7-7-7-5-5-5-5-|
    E |--------------3-|
    
      P.M.----------|^ (let ring)
     

    Тональность:

    Нет текста!



    Назад
    Рекомендуем посмотреть другие песни исполнителя «Petty Tom»:

    • Комментарии Facebook ()
    • Комментарии ВКонтакте



    Добавить в Избранное Браузера
    Сохранить здесь Очистить


    x

    0


    +
    -

    +
    -

    -

    Авторизация





    Зарегистрироваться

    M

    Дата и время

    • 03:30:40
       

    Социальные ссылки


    Наши приложения

    • Muzbank App Play Market
    • Muzbank Amazon App