MUZBANK



A Most Complete Bank Of Music Information

МУЗЫКАЛЬНО-ИНФОРМАЦИОННЫЙ БАНК

Поиск по сайту







    PPhaze • T-man (аккорды и текст - chords & lyrics)


    220

    Print

    Видео «T-man (Phaze)»

    Видео клипы к песне подбираются автоматически сайтом youtube. Возможны некоторые несоответствия клипов песне.

    ↑ Спрятать рекламу ↑



    Download


     
    
    
    Song:T-Man
    Band:Phaze
    Music:T4,Sage
    Album:Phaze
    Tabber:T4-TURBO
    
    Main:
    g:-------------------------------|
    d:-------------------------------|
    a:-------------------------------|
    e:7-0-0-0-7-0-0-0-7-0-7-0-7-0-0-0|
    b:-------------------------------|
    
    2nd:
    g:-----------------------------|
    d:-----------------------------|
    a:-----------------------------|
    e:5-0-0-0-3-3-5---5-0-0-0-3-3-6|
    b:-----------------------------|
    
    3rd:
    g:-----------------------------|
    d:--------7-7-9----------7-7-10|
    a:--------5-5-7----------5-5-8-|
    e:5-0-0-0--------5-0-0-0-------|
    b:-----------------------------|
    
    Bridge:Slap
    g:-----------|
    d:x2x2x33x3-3|
    a:-----------|
    e:-----------|
    b:-----------|
    
    Bridge:2
    g:-----------|
    d:x2x2x33x3-3|
    a:x2x2x33x3-3|
    e:-----------|
    b:-----------|
     

    Тональность:

    Нет текста!



    Назад
    Рекомендуем посмотреть другие песни исполнителя «Phaze»:

    • Комментарии Facebook ()
    • Комментарии ВКонтакте



    Добавить в Избранное Браузера
    Сохранить здесь Очистить


    x

    0


    +
    -

    +
    -

    -

    Авторизация





    Зарегистрироваться

    M

    Дата и время

    • 05:16:59
       

    Социальные ссылки


    Наши приложения

    • Muzbank App Play Market
    • Muzbank Amazon App