MUZBANK



A Most Complete Bank Of Music Information

МУЗЫКАЛЬНО-ИНФОРМАЦИОННЫЙ БАНК

Поиск по сайту







    PPierre Bensusan • L'Alchimiste (аккорды и текст - chords & lyrics)


    225

    Print

    Видео «L'Alchimiste (Pierre Bensusan)»

    Видео клипы к песне подбираются автоматически сайтом youtube. Возможны некоторые несоответствия клипов песне.

    ↑ Спрятать рекламу ↑



    Download


    D|---------2-----------------------|------------------------------------------0--|
    A|-------------3---3-----------3---|-3----------------3-----------3--------3-----|
    G|-----0---------------------------|---------------0-----------0--------0--------|
    D|-------------------------0-------|---------0--2--------2--3--------3-----------|
    A|-3-------------------3-----------|-----3---------------0-----------2-----------|
    D|-----------------3---------------|-5-------------------------------------------|
    
    
    D|---------2--3--2--0---------------------|-----2--2--2--0----------3-----------------|
    A|---------3-----------3--3-----------3---|-3---3--3--3-----3----------3--------------|
    G|-----0---0------------------------------|-----0--0--0---------2---------2--0-----0--|
    D|--------------------------------0-------|--------------3--2---3---------------3-----|
    A|-3--------------------------3-----------|---------------------0---------------------|
    D|------------------------3---------------|-5-----------------------------------------|
    
    
    D|-----------------------------------|-0-----------2---2-------------5--|-5-----------5-----5-------3---2--0--|
    A|-3-----------3-----3-----------3---|---------3---3---3-------3-----3--|---------3-----------------3---3-----|
    G|-0-------0------0----------0-------|-0---0-------0---0----0-----0-----|-----0-----------------2---2---0-----|
    D|-----2-----------------3-------3---|----------------------------------|-2-------2------3--3-----------------|
    A|-3-----------------0-----------0---|-2-----------3---3----------------|-------------------------------------|
    D|-----------------------------------|----------------------------------|-------------------------------------|
    
    
    D|-0---------0----0--0--2-----------------|-------------------------------------------|
    A|------3---------------------3-----------|----------------3---3--3----------3-----3--|
    G|------0----0----0--------0-----0-----0--|-------------0------4----------0-----4-----|
    D|------3---------------------------3-----|-0-----0--2---------3--3----3--------------|
    A|------0----2----3-----------------------|----3-----------3---0--0-------------------|
    D|-5--------------------------------------|-------------------------------------------|
    
    
    D|----0---------------0--0--2-------------5--|-5-----------5-----5-------3---2--0--|
    A|-3--------------3-----------------3--------|---------3-----------------3---3-----|
    G|----------0--0-----------------0-----0-----|-----0---------------------2---0-----|
    D|-------3-----------------------------------|-----------------------3-------------|
    A|-2---------------------3-------------------|-------------------------------------|
    D|-------------------------------------------|-2-------2------0--0-----------------|
    
    
    D|-0------0--0--2--0-------------------------|----------------0---2--2-----------------|
    A|-----3--------------3--3---3------------3--|----------3--3------3--3-----------3-----|
    G|-----0-----0-------------------------0-----|-------0------------0--0-------0---------|
    D|-----3-----3-------------------0--2--------|-2--3----------------------2-------------|
    A|-----------------------3-------------------|-----------------------------------------|
    D|-5---5-------------------------------------|-3---------------------5-------5------5--|
    
    
    D|---------------------------2---2---|-2--0--------0--------0--0-------------------|
    A|-3-----------3-----3-------3---3---|-3-----3---------------------3---------------|
    G|---------0-------------0---0---0---|-0--------0--------0-------------------------|
    D|-----3-----------------------------|----------------3----------------0--2--0-----|
    A|-0-------0------2--3---------------|-------------------------3----------------3--|
    D|-------------------------------2---|-3-----------5-------------------------------|
    
    
    D|-------------------------------------|------------------0------2---------5--10-|
    A|-3--------3------------------3---3---|-3----------3------------3---7--8--------|
    G|-------0-----0-----------0-----------|------0--0---------------0---5-----------|
    D|----3-----------3----2-----------3---|-3---------------------------5-----------|
    A|-0-------------------3-----------0---|-0-------------2-----3-------7-----------|
    D|---------------------5---------------|-----------------------------------------|
    
    
    D|-5--7-------------------------2---2--2------|-2--3--2--0-----0--------0----------------------|
    A|------------------------------3---3--3------|-------------3--------------3-------3--------3--|
    G|-------5---5--7--5-----0--0---0---0--0------|----------------------0---------0------0--------|
    D|--------------------7-----------------------|-------------------3----------------------3-----|
    A|-8------------------------------------------|-0--------------2-----------3-------0-----2-----|
    D|--------------------------5-------5------2--|------------------------------------------------|
    
    
    D|-------------------0--2------3---3---3---|-3-----------3--2---0--0-------------------|
    A|-3--------------3----------------3-------|----------3----------------------2---0-----|
    G|---------------------------------2-------|-------2----------------------0---------0--|
    D|-0--2--0-------------------------3-------|----0--------0-------------0---------------|
    A|-3--------3--3---------------------------|-------------------------------------------|
    D|-------------------------0---------------|-0---------------------5-------------------|
    
    
    D|--------------------------------------3---5--|----7------------2--------0----------0-----|
    A|-------0---------3-----------------3---------|----8---------3-----3---------3--3---------|
    G|-0--------4--4------------------2------------|----5------2------------------0--0---------|
    D|---------------------2---2--3----------------|-0------3--3------------------2--2---------|
    A|----0--------0-------------------------------|-------------------------------------------|
    D|-5-----------------------0-------------------|-----------------3-----5---------5------5--|
    
    
    D|-------------------------------0----5---5---|-5------------7----------0-------------|
    A|-2---0------------0-------------------------|-5-------------------7---------3-------|
    G|-0-------0------------------4---------------|---------------------5---------2-------|
    D|-0--------------------------5---------------|-5-------------------5---------2-------|
    A|-----3---3--2---------------5---------------|-7------0---------0--0------0--0-------|
    D|-5-------------3-----2---------2------------|-----9-----5------------------------2--|
    
    
    D|-----------------0--2------3-----3---3---|-3---3---2---0---------------------|-------------2-----0-------------------------|
    A|-3---------3--3------------------3-------|-----3---3-------3-----------------|----------------------3------3------------3--|
    G|-2---------2---------------------2-------|-----2---0---2---0---2---0-----0---|-0--0-----0----------------------------0-----|
    D|-2---------2------------------0--0-------|-0-----------3---2---3---3-----3---|-3-----5--------3----------------0--2--------|
    A|-2-----3---3-----------------------------|---------------------3---3-----2---|-2-----------------------3-------------------|
    D|----2------------------0-----------------|-------------------------5-----5---|-5-------------------------------------------|
    
    
    D|----------------0---2--2-----------------|----------------0----------2---2---|-2--0--------0--------0----------------------|
    A|----------3--3------3--3-----------3-----|-3-----------3-------------3---3---|-3-----3---------------------3---------------|
    G|-------0------------0--0-------0---------|---------0-------------0---0---0---|-0--------0--------0-------------------------|
    D|-2--3----------------------2-------------|-----3-----------------------------|----------------3----------------0--2--0-----|
    A|-----------------------------------------|-0-------0------2--3---------------|-------------------------3----------------3--|
    D|-3---------------------5-------5------5--|-------------------------------2---|-3-----------5-------------------------------|
    
    
    D|---------------------2--2--2--0------|----------------------------------------|-----3---3--3---3--3--------5---|
    A|-------------3-------3--3--3-----3---|-------3--------------------------------|------------------------8-------|
    G|---------0-----------0--0--0-----0---|-0--2-----2--0--------------------------|------------------------5-------|
    D|-----3------------------------3--2---|-3--------------2--0--2--0--------------|------------3-----------8-------|
    A|-0-----------------------------------|----------------------------3-----------|---------3------5--5----7-------|
    D|-----------------5---------------2---|-3--------------------------------5--2--|-3------------------------------|
    
    
    D|-7-----------------------------------5--|-5---7---7--7---7--7---9---10---2--|-2-----------------------------------------|
    A|-8----8------------------------8--------|-----8---8------8--8---------------|-----3------------3--3---------------------|
    G|-5-------5------------------5-----------|-----5---5------5--5---------------|--------0-----0----------------------------|
    D|------------7------------7--------------|----------------7--7---9---10------|-----------3------------2--0-----0---------|
    A|-8----8--------8--7---------------------|-5---------------------------------|-3---------0--2------3--------3-----2------|
    D|----------------------------------7-----|---------0------5--5---------------|---------------------------------------5---|
    
    
    D|---------5---------------------------5---|-------------------0--5--7--7-----------5-----------|
    A|---------5-----------------------0-------|-------------0-----------------0-----0-----0-----0--|
    G|---------0-------------------0-----------|----------0-----4-----------------5-----------5-----|
    D|---------2---------------2---------------|-------4--------------------------------------------|
    A|-----2---------------3-------------------|----2-----------------------0-----------3--------0--|
    D|-2-------2----2--2-----------------------|-2--------------------------------------------------|
    
    
    D|-----3---3---3-------3-----3--5--5---7---3---|-3---2-----------2---------------------------|
    A|-0---------------7---7--7--------------------|-----------0-----------0-----0---------------|
    G|---------------------5-----------------------|--------------3-----3-----3-----0------------|
    D|---------0-----------0-----------------------|--------5--------------------------3------3--|
    A|---------------------------------2-----------|-4---------------4-----4--------------7------|
    D|-0-------------------------------------------|---------------------------------------------|
    
    
    D|-------------0-----3--5--2--0------------------|--------7--7--5--3---2---0------------0--|
    A|----------0-----7--------------3---------------|--------0--0---------3-------3-----3-----|
    G|-----------------------------------0-----------|--------5--5---------0----------4--------|
    D|-3-----3------------------------------2--0-----|--------3--3-----------------------------|
    A|----7---------------------------------------3--|-----3-----------------------------------|
    D|-0-----------------------2---------------------|-3-------------------5-------------2-----|
    
    
    D|------------0-----5--0----0-----------------|-----------0----0-------------------|
    A|-7-------------7----------------------0-----|------------------------------------|
    G|---------5-----------4-------4--5--4-----0--|-0----0--------------------0--------|
    D|-----7---------0-----5----------------------|-3---------3----3-------------3-----|
    A|-0-------3-----------7----------------------|-3---------3----3---2---2--------5--|
    D|--------------------------------------------|-0---------5----5-------------------|
    
    
    D|------------------------------------------------|----0---------------0--0--2-------------5--|
    A|---------3-----------------------------3-----3--|-3-----------3--3-----------------3--------|
    G|-----0------0--------------------0--0-----4-----|----------0--------------------0-----0-----|
    D|-2-------------3--2--3--2--3--3-----------------|-------3-----------------------------------|
    A|-3-------------------0--------------------------|-2---------------------3-------------------|
    D|------------------------------------------------|-------------------------------------------|
    
    
    D|-5-----------5-----5-------3---2--0--|-0---------0----0--0--2-----------------|-------------------------------------------|
    A|---------3-----------------3---3-----|------3---------------------3-----------|----------------3---3--3----------3-----3--|
    G|-----0---------------------2---0-----|------0----0----0--------0-----0-----0--|-------------0-----------------0-----4-----|
    D|-2-------2------3--3---3-------------|------3---------------------------3-----|-0-----0--2---------3--3----3--------------|
    A|-------------------------------------|------0----2----3-----------------------|----3---------------0--0-------------------|
    D|-------------------------------------|-5--------------------------------------|-------------------------------------------|
    
    
    D|----0------------------0--0--2-------------5--|-5----------5-----7--7--5------------|
    A|-3------------0-----3----------------3--------|---------3-------------------8--7----|
    G|-----------0-----4----------------0-----0-----|-----0-----------------------5-------|
    D|--------3-------------------------------------|-----------------------------7-------|
    A|-2------------------------3-------------------|---------------------8-------5-------|
    D|----------------------------------------------|-2-----------------------------------|
    
    
    D|-0----0--2--3--2--0-------------------------|----------------0---2--2-----------------|
    A|---------------------3--3---3------------3--|----------3--3------3--3-----------3-----|
    G|-0------------------------------------0-----|-------0------------0--0-------0---------|
    D|------3-------------------------0--2--------|-2--3----------------------2-------------|
    A|------------------------3-------------------|-----------------------------------------|
    D|-5------------------------------------------|-3---------------------5-------5------5--|
    
    
    D|---------------------------2---2---|-2--0--------0--------0--0-------2-------|---------3--------------2--2--0------|
    A|-3-----------3-----3-------3---3---|-------3-----------------------------3---|-3-----------3---3----------------3--|
    G|---------0-------------0---0---0---|----------0--------0---------0-----------|---------------------0--0--0--0------|
    D|-----3-----------------------------|----------------3------------------------|-----3----------------------------3--|
    A|-0-------0------2--3---------------|-------------------------3---------------|-0-----------------------------------|
    D|-------------------------------2---|-3-----------5---------------------------|-----------------5-------------------|
    
    
    D|-----------------------------2---------|---------3----------------2--2--5------|
    A|-3----------------3--3-----------3-----|-3--------------3--3----------------3--|
    G|---------0-----0---------0-------------|-------------0---------0--0--0--0------|
    D|-3---3------3--------------------------|-----3------------------------------3--|
    A|-0-------0--------2--3-------3------2--|-0-------------------------------------|
    D|---------------------------------------|-------------------5-------------------|
    
    
    D|-----------------------------2-----------|-------------------------------------|
    A|-3----------------3--3-------------3-----|-3-----------3---3----------------3--|
    G|---------0-----0---------0---------------|-------------------------------0-----|
    D|-3---3------3----------------0--2--0-----|---------0---------------0--2--------|
    A|-0-------0--------2--3----------------3--|-----3---------------3---------------|
    D|-----------------------------------------|-3---------------5-------------------|
    
    
    D|----------------------0--------------0--------------|-----------------------|
    A|----------3--------3--------------3-----3-----------|-------------3--3------|
    G|-------0--------0--------------0-----------0--------|----------0-----0------|
    D|-2--3--------3--------------3-----------------2-----|-------2--------2------|
    A|-0-----------2-----------3-----------------------5--|----3-----------3------|
    D|----------------------------------------------------|-5--------------5------|
    
    

    Тональность:

    Нет текста!



    Назад
    Рекомендуем посмотреть другие песни исполнителя «Pierre Bensusan»:

    • Комментарии Facebook ()
    • Комментарии ВКонтакте



    Добавить в Избранное Браузера
    Сохранить здесь Очистить


    x

    0


    +
    -

    +
    -

    -

    Авторизация





    Зарегистрироваться

    M

    Дата и время

    • 21:29:37
       

    Социальные ссылки


    Наши приложения

    • Muzbank App Play Market
    • Muzbank Amazon App