MUZBANK



A Most Complete Bank Of Music Information

МУЗЫКАЛЬНО-ИНФОРМАЦИОННЫЙ БАНК

Поиск по сайту







    PPierre Bensusan • Wu Wei (аккорды и текст - chords & lyrics)


    192

    Print

    Видео «Wu Wei (Pierre Bensusan)»

    Видео клипы к песне подбираются автоматически сайтом youtube. Возможны некоторые несоответствия клипов песне.

    ↑ Спрятать рекламу ↑



    Download


    Acoustic Guitar (steel)
    
    
    
         E  E  E  E  E  E     E  E  Q    E  E     E  E  E  E  E  S S  
    D||--------------4-----|--2-------------2--|--------------4----2-|
    A||-----------5-----5--|-------------5-----|--5--------5-----5---|
    G||--------2-----------|--------2----------|--------0------------|
    D||-----0--------------|-----2-------------|-----4---------------|
    A||--------------------|-------------------|---------------------|
    D||--0-----------------|--4----------------|--5------------------|
    
    
      E  E  E  Q    E     E  E  E  E  E  E     E  E  Q    E  E   
    ----------------2--|--0-----------4-----|--2-------------2--|
    -----------5-------|-----------5-----5--|-------------5-----|
    --------4----------|--------2-----------|--------2----------|
    -----5-------------|-----4--------------|-----2-------------|
    --0----------------|--------------------|-------------------|
    -------------------|--0-----------------|--4----------------|
    
    
      E  E  E  E  E  E     E  E  Q    E  E     T S. Q    E   E  E   
    --4-----------4-----|--2-------------2--|--2-4--4--------4-----|
    --5--------5-----5--|-------------5-----|------------5S-----7--|
    --2-----2-----------|--------4----------|------------2---------|
    -----2--------------|-----5-------------|-------4--------------|
    --------------------|--0----------------|----------------------|
    --5-----------------|-------------------|--0-------------------|
    
    
      E  Q    E  E  E     E  Q    E  E  E     E  E  E  E  S S S S  
    --0--0-------0-----|--4--4-------4-----|--0---------------0---|
    ----------------7--|----------5-----7--|--------------0-----7-|
    ----------4--------|----------2--------|-----------0----4-----|
    -----4-------------|----------5--------|--------4-------------|
    --2----------0-----|-----5-------------|-----2--------0-------|
    -------------------|--5----------------|--2-------------------|
    
    
      E  E  E  E  E  E     E  E  E  E  E  T S.    E  E  E  E  E  E   
    --0--------0--------|-----------4----------|--------------------|
    --------------4--2--|--------2-----7-------|--------0-----0-----|
    --------4-----------|--------2--------4-6--|-----4--------------|
    -----4--------------|-----0----------------|-----------0-----0--|
    --2-----------0-----|----------------------|-----------2--------|
    --------------------|--5-------------------|--4-----------------|
    
    
      S  S  S  S  E  S  S S S S S    E  E  E  E  E  S S    E  E  E  E  E  E   
    ----------------------0---4-5-|--4--4--------4----2-|-----0--------0--0--|
    --0h-2h-3p-2p-0--0h-2---7-----|-----------5---------|--------------------|
    --0---------------------------|-----------2---------|-----------4--------|
    -----------------2------------|--------4------------|--------4-----------|
    -----------------0------------|---------------------|--2-----------0-----|
    --2---------------------------|--0--------------4---|--------------------|
    
    
                                        NH     NH              
      S S S S S  S  E   E  S S    E     Q      S S  S  S  S S  
    --9---0--------12--11--9-7-|-----------------7----------0-|
    ----0-------10-------------|-----<>12----------10---------|
    ----------7----------------|----------------------11S-9---|
    --------9------------------|-------------<>0--------------|
    ----------------0----------|------------------------------|
    --5------------------------|--0---------------------------|
    
    
      E  E  E  S S S S S S    E  S E  S E  E  E     E  Q    S S S S S S  
    -----0---------0---4-5-|-----0---------4-----|--0-----------------0-|
    -----------0-----7-----|--7-------0-------7--|----------------------|
    --------4----4---------|-------4-------------|----------------------|
    --------4--------------|-------5-------------|-----0--------0---2---|
    --2--------0-----------|------------0--------|------------2---0-----|
    -----------------------|--5------------------|--4-------5-----------|
    
    
      Q.     E  E  E     E  E  E  E  E  E     E   E  E  E  T S. E   
    --0------0--0--0--|--9--9--9-----9--7--|--7S--4--4-----4-2--0--|
    ------------------|--------------------|------------4----------|
    ------------------|-----------6--------|------------4----------|
    --4---------------|-----------7--------|------------2----------|
    --0---------------|-----------7--------|-----------------------|
    --0---------------|--5-----------------|--0--------------------|
    
    
                            NH   NH                        
      E  E  E    E   S S    S    S    E  E  E  S S S E  S  
    -----0--0S--12--11-9------<>12-|-----4-----4-5-4----0-|
    --2------------------<>12------|-----------------7----|
    --0----------------------------|----------------------|
    --0----------------------------|--------0-------------|
    -------------0-----------------|----------------------|
    --5----------------------------|--0-------------------|
    
    
                            NH                                                 
      E  E  E   E   S E     S    E  E  E  S  S S  E  S    E  E  E  S S S E  S  
    --9--------12--11-9-------|-----9--7--7----------0-|-----------0-2-4-5--4-|
    ---------------------<>12-|-----9-----7h-9---------|----------------------|
    --------0-----------------|-----7----------7h-9----|--------2--4----------|
    -----5--------------------|-----7------------------|-----0-----0----------|
    --------------------------|------------------------|----------------------|
    --5-----------------------|--9---------------------|--4--------5----------|
    
    
      E  E  S S Q    E     E  S E  S E  E  E     E  S E  S S S S S S S  
    -----------------4--|--4--2-2--0-0-----0--|--2--2-4--------0---4-5-|
    --7-------0---------|--5----2-------2-----|--0-------5-------7-----|
    -----6--4-----------|--2----0----2--0-----|--------------4---------|
    ------------7-------|--0---------4--------|--2---------------------|
    --0-----------------|---------------------|------------2---0-------|
    --------------------|------------0--------|--4---------------------|
    
    
      E  S E  S E  E  E     E  E  S S E  S S S  S    E  S E  S E  E  E   
    --5-------0-0--------|-----0----0-0--0---4h-5-|--4--2-2--0-0-----0--|
    -----7-7----------0--|-----------------7------|--5----2-------2-----|
    ---------------4-----|-----0----5-4-----------|--2----0----2--0-----|
    ---------------------|------------------------|------------4--------|
    ---------------------|---------------0--------|--5------------------|
    --5----0----5--------|--2-----4---5-----------|------------0--------|
    
    
      E  S E  S S S S S S S    E  S E  S E  E  E     H        E  E   
    --2--2-4--------0---4-5-|--7--5-5----0--------|--------------0--|
    ----------5-------7-----|----------7-------0--|--------------4--|
    --2-----------4---------|---------------4-----|--------------2--|
    --2---------------------|---------------5-----|--------------4--|
    ------------2---0-------|---------------------|--0--------L--7--|
    --4---------------------|--5------------------|-----------------|
    
    
                          |--3--|                                                  
      S S S S S S S S S S S  S  S    Q.     S  E  T   T  S S    Q    E  E  E  S S  
    ----0-------------0---4h-5h-7-|--7------9-12-----------0-|-------------0------|
    ----------------0---7---------|--------------------------|--5-------2---------|
    ------------------------------|--2------7-----9h-11p-9---|----------0---------|
    --4---4---0---4---------------|--2------7----------------|----------4---------|
    --------7---7-----------------|--------------------------|-------5------------|
    --0---------------------------|--4------9----------------|--5-------------4-5-|
    
    
      E  S E  S E  S E  S    Q.     E  E  E     E  E  E  E  S S S  S  
    ------------5--4------|---------4--------|--2---------------2h-4-|
    ----------5-5----5----|--0---------5-----|--------------5--------|
    -------4----4-------4-|---------------2--|-----------2----4------|
    -----5------5-------5-|---------0--------|--------2--------------|
    --0---------0---------|--7---------------|-----4--------2--------|
    ----------------------|--0------------2--|--4--------------------|
    
    
      E  S E  S S  S S E.     Q    E  E  E  E     E.  E  S E  T  T  E  S  
    -----2-----------------|----------------0--|-----------0-----------0-|
    -------5-----------2---|-------------------|--------------7h-9p-7----|
    ----------4------2-----|--1-------1--2-----|--4------4---------------|
    ------------2h-4-------|--2-------2--0-----|--7------7---------------|
    -----------------------|--2----2-----------|--5---5------------------|
    --2--------------------|--2----------4-----|--5----------------------|
    
    
      E  S E.  E  S S S S    S T T  E  S S E   S  S S S    E  E  E  S S S S S S  
    -----------0--0---4-5-|--7---------7-9-7----------0-|--------0----7---------|
    -------0--------7-----|--------10---------10S-9-----|-----------7-------0---|
    -----------2----------|------7------------------9---|-----4---------6-----0-|
    -----0-----4----------|----9------------------------|-----5-----------9-----|
    -----------2----------|--7--------------------------|--0--------------------|
    --4-------------------|-----------------------------|-----------------------|
    
    
                                                                      NH    NH 
      Q    E  S S  E  S S    E  S S S S S E  E  S    E  E  E  E  S    E     S  
    ----------7-8-10------|-----8-7----------5----|-----4--5-----7-<>12--<>12-|
    --0-------------------|---------8---8---------|-----------9---------------|
    ----------------------|---------------------0-|-----------6---------------|
    --3-------------------|-----------8---7-------|--0------------------------|
    --3----8----------8-7-|--6--------------------|---------------------------|
    --3-------------------|-----------------------|---------------------------|
    
    
      S S S S  S S S  S  E  S S    E  S  E  E  S S S E     S S S S S S S S E  S S  
    ----------10-9-7--------0---|--------------5-6-5----|----5-0------------------|
    --------7--------10S-9----8-|-----------8--------8--|-------------------------|
    ------5---------------------|--------7--------------|--------5---0--------0---|
    ----5-----------------------|-------10--------------|----------6-----0------3-|
    --0-------------------------|-----8-----------------|--------------8---2------|
    ---------------0------------|--8--------------------|--6----------------------|
    
    
      E  E  E  E  S S S S    E  S S S S E  S S S S    E  E  E  E  E  E   
    ----------------------|-----0------------------|--------------4-----|
    ----------------0---4-|---------4---2----------|-----------5-----5--|
    -----------0------4---|-----------4----0-------|--------2-----------|
    --0-----0-------------|------------------4---0-|-----0--------------|
    -----2----------------|----------------0---7---|--------------------|
    --5-----------4-------|--2----4-----5----------|--0-----------------|
    
    
      E  E  Q    E  E     E  S E  E.  S S E     E  E  Q    E  E   
    --2-------------2--|--------------4---2--|----------------2--|
    -------------5-----|--5-------5-----5----|-------------5-----|
    --------2----------|-------0-------------|--------4----------|
    -----2-------------|-----4---------------|-----5-------------|
    -------------------|---------------------|--0----------------|
    --4----------------|--5------------------|-------------------|
    
    
      E  E  E  E  E  E     E  E  Q    E  E     E  E  E  E  T S. E   
    --0-----------4-----|--2-------------2--|--4-----------4-2-----|
    -----------5-----5--|-------------5-----|--5--------5-------5--|
    --------2-----------|--------2----------|--2-----2-------------|
    -----4--------------|-----2-------------|-----2----------------|
    --------------------|-------------------|----------------------|
    --0-----------2-----|--4----------------|--5-------------------|
    
    
                                    NH                            
      E  E  Q    E  E     Q.        E  E  E     E   Q.     E  E   
    --2-------------2--|------------------7--|--9--12------0-----|
    -------------5-----|--5------------9-----|--9-------------4--|
    --------4----------|--2------------------|--7-------------2--|
    -----5-------------|--4------<>12-----7--|-------------4--2--|
    --0----------------|---------------9-----|-------------2--0--|
    -------------------|--0------<>12--------|--9----------------|
    
    
      Q.     E  E  E     Q    E   E  S S S  S    E  S E  S E  E  E   
    ---------4-----0--|--0----0---0--0---4h-5-|--5----0--0----------|
    --2---------7-----|----------------7------|-----7------------0--|
    --0---------------|--0----2S--4-----------|---------------------|
    --0---------------|-----------------------|--0---------0--4-----|
    ------------------|--------------0--------|------------------0--|
    --5---------------|--2----4S--5-----------|------------0--4-----|
    
    
      E  Q.     E  E     H.              E  S S E  E  S S S S  
    -----0------4--2--|--0------------|-----4---2-----0-----0-|
    ------------5--4--|--2------------|-----5---2---------2---|
    --4---------4--2--|--0------------|-----2---0---------0---|
    ------------------|---------------|-------0---------4-----|
    --2------------0--|---------------|-----------------------|
    ------------------|--5------------|--0---------0----------|
    
    
      E  S S S S E  S S E     E  S S E  E  S S E     E  S S E  S S S S S S  
    -----2-----2-----------|---------------0------|--------------0-----0-2-|
    ---------2------5---4--|-----2---4---------4--|-----2---4--------0-----|
    ---------2------4---2--|-----0---2-----4---2--|-----0---2------4-------|
    ---------2------4---2--|-----0---2-----4---2--|-----0---2--------------|
    -------4-----2----0----|----------------------|--------------------0---|
    --4--------------------|--5----0----5----4----|--2----4----5-----------|
    
    
      E  S E  S E  E  E     E  S  E  S S S S S S S    E  S E  S E  E  S S  
    --4--2-2--0-0-----0--|--2--2h-4--------0---4-5-|--4-------0-0---------|
    --5----2-------2-----|-----------5-------7-----|-----7-7----------0---|
    --2----0----2--0-----|--2------------4---------|---------------4------|
    --0---------4--------|--2----------------------|----------------------|
    -------0-------------|-------------2---0-------|----------------------|
    ------------0--------|--4----------------------|--5----0----5-------4-|
    
    
      E  E  S S  E  S S S  S    E  S E  S E  E  E     E  S  E  S S S S S S S  
    -----0----0--0--0---4h-5-|--4--2-2--0-0-----0--|--2--2h-4--------0---4-5-|
    ------------------7------|--5----2-------2-----|-----------5-------7-----|
    -----0----2h-4-----------|--2----0----2--0-----|--2------------4---------|
    -------------------------|--0---------4--------|--2----------------------|
    ----------------0--------|-------0-------------|-------------2---0-------|
    --2-----4----5-----------|------------0--------|--4----------------------|
    
    
      E  S E  S E  S E  S    S S S E  S S S S S S S    Q.     E  E  E   
    --7--5-4----0---------|-------------------------|------------------|
    ----------7---------0-|-------------------------|---------------0--|
    ---------------6------|----0--------------------|------------------|
    -----------------9----|------4----0-------------|---------0--4-----|
    ----------------------|--0-----7----4---0-------|---------------0--|
    --5-------------------|---------------9---5-4-2-|--0------0--4-----|
    
    
                                                      NH        
      E  Q.     E  E     H        E  E     E  E  E    E  E  E   
    ------------7--7--|--7--------0-----|--4--4----------7-----|
    -----5------9--7--|--5-----------7--|-------------------7--|
    --4---------7--6--|--4--------------|-----------<>7--------|
    ------------------|--0--------------|-----------<>7--------|
    --2---------------|-----------------|--------0-------------|
    ------------------|--5--------------|--0-------------------|
    
    
                                   NH   NH                              
      E  E  E  E  E  E     E  E    E    E  E  E     E  E  E  E.  S S S  
    --0--0--------0-----|--4--4------------4-----|--0--------------0---|
    -----------------7--|-------------<>7-----7--|-----------0-------7-|
    -----------4--------|------------------------|--------0------4-----|
    --------4-----------|--------<>7-------------|-----4---------------|
    --2-----------------|------------------------|-----------0---------|
    --------------------|--5---------------------|--2------------------|
    
    
      E  E  E  E  S E  S    E  E  Q    E  E     E  E  E  E  E  E   
    --0------------------|-------------4-----|--------------------|
    -----------5--4------|--2-------------7--|--------------0-----|
    --------4-------2----|--------0----------|-----6--------------|
    -----4-------------0-|-----0-------------|--------9--------0--|
    --2--------0---------|-------------------|-----------2--------|
    ---------------------|--5----------------|--4-----------------|
    
    
      T E.  T E  S S S S S  S    E  E  E  E  E  E     E  E  E  E  E  E   
    -----------------0---4h-5-|--4--4--------4--2--|--0--------0--0--0--|
    --0-2---L-0--0-2---7------|-----------5--------|--------------------|
    --0-----------------------|-----------2--------|--------4-----------|
    -------------2------------|--------4-----------|-----4--------------|
    -------------0------------|--------------------|--2--------0--------|
    --2-----------------------|--0--------------4--|--------------------|
    
    
      S S S S S  S  E   S E  S    Q    E  E  S S E     E  E  E  S S S S E   
    --9------------12--11-9--7-|--7-------5------0--|---------------0---4--|
    ------0-----10-------------|-------------7------|-----------0-----7----|
    ----0-----7----------------|--------------------|--------4----4--------|
    --------9------------------|-------0------------|-----4----------------|
    ----------------0----------|--------------------|--2--------0----------|
    --5------------------------|--0------------4----|----------------------|
    
    
      E  S E  S E  E  E     E  E  E  S S S S S S    Q.      Q.      
    -----0---------4-----|--0------------------0-|--0--------------|
    --7-------0-------7--|--------0--------------|-----------------|
    -------4-------------|-----------------------|---------11------|
    ---------------------|-----0---------0---2---|--4------12------|
    ------------0--------|-------------2---0-----|--0------12------|
    --5------------------|--4--------5-----------|--0------12------|
    
    
    

    Тональность:

    Нет текста!



    Назад
    Рекомендуем посмотреть другие песни исполнителя «Pierre Bensusan»:

    • Комментарии Facebook ()
    • Комментарии ВКонтакте



    Добавить в Избранное Браузера
    Сохранить здесь Очистить


    x

    0


    +
    -

    +
    -

    -

    Авторизация





    Зарегистрироваться

    M

    Дата и время

    • 05:04:23
       

    Социальные ссылки


    Наши приложения

    • Muzbank App Play Market
    • Muzbank Amazon App