MUZBANK



A Most Complete Bank Of Music Information

МУЗЫКАЛЬНО-ИНФОРМАЦИОННЫЙ БАНК

Поиск по сайту







    PPillar • Live For Him (аккорды и текст - chords & lyrics)


    240

    Print

    Видео «Live For Him (Pillar)»

    Видео клипы к песне подбираются автоматически сайтом youtube. Возможны некоторые несоответствия клипов песне.

    ↑ Спрятать рекламу ↑



    Download


     
    
    
    Song: Live for him
    Artist: Pillar
    Flicker Records
    Tabbed by Rucka
    
    This is a pretty sweet song if you like rock. Listen to
    the song for the rhythm.
    
    Intro/Verse:
    G------------------------------------------------------
    D------------------------------------------------------
    A----0-5-4-0-----------------0-5-4-0-------------------
    E--0---------0-2-2-3-5-3-3-0---------0-2-2-2-2-2-2-2---
    
    Bridge: Note: pop all the notes on the G string
    G-------------7h9----------9--9------------------------
    D------------------------------------------------------
    A------------------------------------------------------
    E---00000000------00000000--0--------------------------
    
    Chorus:
    4x
    G-------------
    D-------------
    A-------------
    E--1-1-1-1h3--
    “Are you believing, loving......”
    
    G-----------------------------
    D-----------------------------
    A------3-----1-----3----------
    E-0000---0000--0000--333333---
    “I’ve got this question for ya.....”
    
    
    This is the part where he sings, “Well i know you think..........”
    3x
    G----------------
    D----------------
    A---6h7-5-2-0----
    E-0-----------0--
    
    The crazy part after he says “ so here we go”
    8x
    G---------------------------
    D---------------------------
    A---------------------------
    E--0-0-0-2h3-0-0-0-3-0-0-5--
    
    Well, that’s it. If you have any questions, comments, or anything
    else, email me oldskoolrucka@aol.com. peace out.
     

    Тональность:

    Нет текста!



    Назад
    Рекомендуем посмотреть другие песни исполнителя «Pillar»:

    • Комментарии Facebook ()
    • Комментарии ВКонтакте



    Добавить в Избранное Браузера
    Сохранить здесь Очистить


    x

    0


    +
    -

    +
    -

    -

    Авторизация





    Зарегистрироваться

    M

    Дата и время

    • 13:03:48
       

    Социальные ссылки


    Наши приложения

    • Muzbank App Play Market
    • Muzbank Amazon App