MUZBANK



A Most Complete Bank Of Music Information

МУЗЫКАЛЬНО-ИНФОРМАЦИОННЫЙ БАНК

Поиск по сайту







    PPink Floyd • Dogs of war (аккорды и текст - chords & lyrics)


    289

    Print

    Видео «Dogs of war (Pink Floyd)»

    Видео клипы к песне подбираются автоматически сайтом youtube. Возможны некоторые несоответствия клипов песне.

    ↑ Спрятать рекламу ↑



    Download


    Cm
    Dogs of war, and men of hate,
    With no cause, we don't disciminate,
    Discovery, is to be disowned,
    Our currency, is flesh and bone,
    Ebm
    Hell opened up, and put on sale,
    Gather 'round and haggle,
    Cm
    For hard cash we lie, and decieve,
    But even our masters dont know the webs we weave,
    
    Ab
    One world, it's a battleground,
    Fm
    One world, and we will smash it down,
    Cm
    One world, one world
    
    Cm
    Invisable transfers, long distance calls,
    Hollow laughter, in marble halls,
    Steps have been taken, a silent uproar,
    Has unleashed the dogs of war,
    Ebm
    You can't stop what has begun,
    Signed, sealed, they deliver olivion,
    Cm
    We all have a dark side, to say the least,
    And dealing in death is the nature of the beast
    
    Ab
    One world, it's a battleground,
    Fm
    One world, and we will smash it down,
    Cm
    One world, one world,
    
    SOLO:
    E|------------------------------------------------------|
    B|------------------------------------------------------|
    G|---10h12===(12)p10p8-------------------------8------8-|
    D|----------------------10vvvvv--10vvvvvv-10⁄-----10----|
    A|------------------------------------------------------|
    E|------------------------------------------------------|
    
    E|-----------------------------------------------|
    B|---/13--13vvvvvv--13vvvv--13vvv--13p11h13b(16)-|
    G|-----------------------------------------------|
    D|-----------------------------------------------|
    A|-----------------------------------------------|
    E|-----------------------------------------------|
    
    E|----------------------------|
    B|----------------------------|
    G|---3------------------------|
    D|------5-------------1-----1-|
    A|---------3--3--3p1-----3----|
    E|----------------------------|
    
    E|-----------------------------------------------|
    B|------11-------11-------11---11----------------|
    G|--10b(11)--10b(11)--10b(11)--10p8------10b(11)-|
    D|-----------------------------------10----------|
    A|-----------------------------------------------|
    E|-----------------------------------------------|
    
    E|-11-------------------------|
    B|----------------------------|
    G|-----10------8h10--10--10p8-|
    D|---------10-----------------|
    A|----------------------------|
    E|----------------------------|
    
    E|---------------------------|
    B|---------------------------|
    G|-------10p0--------------8-|
    D|---10--------10vvvvvvvv----|
    A|---------------------------|
    E|---------------------------|
    
    E|------------------------------------------------------------|
    B|-------7--9--9b(11)--9b(11)--9p7-----7--9--9b(10)r9p7-----7-|
    G|---/8-----------------------------8--------------------8----|
    D|------------------------------------------------------------|
    A|------------------------------------------------------------|
    E|------------------------------------------------------------|
    
    E|--------------11--11-----------------|
    B|--/11--14p11----------14p11----------|
    G|-----------------------------13p11---|
    D|----------------------------------13-|
    A|-------------------------------------|
    E|-------------------------------------|
    
    E|-------------------------------------|
    B|-------------------------------------|
    G|-11--13b(14)r13p11------13--------11-|
    D|------------------13------13vvvv-----|
    A|-------------------------------------|
    E|-------------------------------------|
    
    E|---------------------------11p8--8--11p8-|
    B|-------------13vvv--13p11----------------|
    G|---13⁄/----------------------------------|
    D|-----------------------------------------|
    A|-----------------------------------------|
    E|-----------------------------------------|
    
    E|-11p8--8---------11--8--8--8--11p8-|
    B|----------11--8--------------------|
    G|-----------------------------------|
    D|-----------------------------------|
    A|-----------------------------------|
    E|-----------------------------------|
    
    E|---11b(13)b(14)--11--8--11--10p8--12--8vvvvvv⁄-|
    B|-----------------------------------------------|
    G|-----------------------------------------------|
    D|-----------------------------------------------|
    A|-----------------------------------------------|
    E|-----------------------------------------------|
    
    E|------11--13vvvvvvvvp11--13--13--13--11------11-|
    B|--13-------------------------------------13-----|
    G|------------------------------------------------|
    D|------------------------------------------------|
    A|------------------------------------------------|
    E|------------------------------------------------|
    
    E|---------11-----------------|
    B|-13vvvv------13b(16)vvvvvv⁄-|
    G|----------------------------|
    D|----------------------------|
    A|----------------------------|
    E|----------------------------|
    
    E|---------------------------------------8-------------|
    B|------------------------------------------/13vvvvvvv-|
    G|--------8--10--10p8------8--10--10h12----------------|
    D|---/10---------------10------------------------------|
    A|-----------------------------------------------------|
    E|-----------------------------------------------------|
    
    E|-----------------------|
    B|-10b(11)r10------------|
    G|-10b(11)r10------8-----|
    D|-------------10-----10-|
    A|-----------------------|
    E|-----------------------|
    
    REPEAT 2ND VERSE(with diff lyrics)
    
    SAX SOLO
    
    VERSE:
       Cm
    E|-------------------------------------------------------------|
    B|---------11--------------------------------------------------|
    G|-----10b(11)r10p8-----------------8vvvvvvvvvvvv--------------|
    D|-------------------------------------------------10vvvvvvvvv-|
    A|-------------------------------------------------------------|
    E|-------------------------------------------------------------|
       The dogs of war        won't    negotiate.
    
    E|------------------------------------8------------------------|
    B|---------------------------------8-----/13vvvvvvp11--13b(16)-|
    G|-------------------------------------------------------------|
    D|-------------------------------------------------------------|
    A|-------------------------------------------------------------|
    E|-------------------------------------------------------------|
       The dogs of war         won't  capitulate.
    
    E|-----------------------------|
    B|-----------------------------|
    G|-------------------(11)r10p8-|
    D|-----------------------------|
    A|-----------------------------|
    E|-----------------------------|
       They will take,         and you will give.
               Ebm
    E|-------------------------------------------------------------|
    B|-------------------------------------------------/11⁄/⁄/p9p7-|
    G|-------------------------------------------------------------|
    D|-------------------------------------------------------------|
    A|-------------------------------------------------------------|
    E|-------------------------------------------------------------|
        And you must die,   so   that they may live.      You can
    
    E|--------------------------11------------------|
    B|-----------------9b(11)--------7--------------|
    G|------------------------------------8vvvvvvvv-|
    D|----------------------------------------------|
    A|----------------------------------------------|
    E|----------------------------------------------|
       knock  at any  door,        but wherever you go
    
    E|-----------------------10----------------|
    B|--------------------9>(10)>9>(10)--7-----|
    G|--------------------------------------8⁄-|
    D|-----------------------------------------|
    A|-----------------------------------------|
    E|-----------------------------------------|
       you know they've been there   before.
    
              Cm
    E|------------------------------------|
    B|------------------------------------|
    G|------------------------------------|
    D|--10vvvv⁄---------------------8tr10-|
    A|------------------------------------|
    E|------------------------------------|
       But winners can  lose, things can get strained,
    
    E|-------------------------------------------------------------|
    B|------------------11-----------------------------------------|
    G|--------------10b(12)=====r10p8-------------10b(12)---10--8⁄-|
    D|-------------------------------------------------------------|
    A|-------------------------------------------------------------|
    E|-------------------------------------------------------------|
      But whatever you change     you know the dogs remain.
    
       Ab7          Fm   G7sus4
    E|-----------|
    B|--6--4-----|
    G|--6--5-----|
    D|---------6-|
    A|-----------|
    E|-----------|
      One world,  it's a battleground.
      One world, we will smash it down.
    
       Cm
    E|-------------------------------------------------------------|
    B|-------------------------------------------------------------|
    G|-----12>(15)====>12vvvvvv----10b(12)r(11)r10----------8------|
    D|-------------------------------------------------8h10---10vv-|
    A|-------------------------------------------------------------|
    E|-------------------------------------------------------------|
      One world.       One world.
    
    E|-------------------------------------------------------|
    B|----------11vvvvvvvvv---11-----------------------------|
    G|------10b(12)vvvvvvvv-------10b(11)r10p8---------------|
    D|------------------------------------------10-----8tr10-|
    A|-------------------------------------------------------|
    E|-------------------------------------------------------|
      One world
    
    E|-------------------------------|
    B|----------11-11b(13)vvvvvvvvv⁄-|
    G|-------------------------------|
    D|-------------------------------|
    A|-------------------------------|
    E|-------------------------------|
      One world
    

    Тональность:

    Нет текста!



    Назад
    Рекомендуем посмотреть другие песни исполнителя «Pink Floyd»:

    • Комментарии Facebook ()
    • Комментарии ВКонтакте



    Добавить в Избранное Браузера
    Сохранить здесь Очистить


    x

    0


    +
    -

    +
    -

    -

    Авторизация





    Зарегистрироваться

    M

    Дата и время

    • 14:51:18
       

    Социальные ссылки


    Наши приложения

    • Muzbank App Play Market
    • Muzbank Amazon App