MUZBANK



A Most Complete Bank Of Music Information

МУЗЫКАЛЬНО-ИНФОРМАЦИОННЫЙ БАНК

Поиск по сайту







    PPink Floyd • Shine On You Crazy Diamond Part 2 (аккорды и текст - chords & lyrics)


    358

    Print

    Видео «Shine On You Crazy Diamond Part 2 (Pink Floyd)»

    Видео клипы к песне подбираются автоматически сайтом youtube. Возможны некоторые несоответствия клипов песне.

    ↑ Спрятать рекламу ↑



    Download


    E|--------------0---|
    B|-----6------------| (19)>17---15--17------------5>(7)-(7)>5>3-----5---3-----|
    D|-----------------------17⁄----------------------5----------5-|
    A|-------------------------------------------------------------|
    E|-------------------------------------------------------------|
    
    E|-18>15----18-17>(18)-17vvv-----------------------------------|
    B|-15----15-15---------------18>15-18>(20)-18>(20)>18>15-18vvv-|
    G|-------------------------------------------------------------|
    D|-------------------------------------------------------------|
    A|-------------------------------------------------------------|
    E|-------------------------------------------------------------|
    
    E|-18>15-----18>15-----18>(20)--18>(20)>1815--18---------------|
    B|--------15-------15-----------------------------18>(20)--18⁄-|
    G|-------------------------------------------------------------|
    D|-------------------------------------------------------------|
    A|-------------------------------------------------------------|
    E|-------------------------------------------------------------|
    
    E|-------------------------------------------------------------|
    B|-------------------------------------------------------------|
    G|-15>(17)>(19)>15--12--15>(16)vvv-12-6⁄5--3>(4)---------------|
    D|-----------------------------------------------5-------------|
    A|-------------------------------------------------4⁄3--1--3/5-|
    E|---------------------------------------------------------1/3-|
    
    E|-------------------------6----------------------------------|
    B|----------------------------5/6--8/-------(11)>10>8------8/-|
    G|-----3--------------6>7------------------------------10-----|
    D|-----3--3/5vvvvvv-------------------------------------------|
    A|-4/5--------------------------------------------------------|
    E|------------------------------------------------------------|
    
    E|-------------------------------------------------------------|
    B|-------------------------------------------------------------|
    G|-15-17>(19)>17>(19)-17>(19)>(20)vvvvv-17>(19)>(20)-17>(20>17-|
    D|-------------------------------------------------------------|
    A|-------------------------------------------------------------|
    E|-------------------------------------------------------------|
    
    E|-----------------------------15--15-----15------------15--15-|
    B|-------------------------18>(20)----18>(20)>18>15-18>(20)----|
    G|-------------------------------------------------------------|
    D|-16---16>17>16⁄14>16--16-------------------------------------|
    A|-------------------------------------------------------------|
    E|-------------------------------------------------------------|
    
    E|-17>(18)--17>(18)-17-----------------------------------------|
    B|---------------------18>(20)-(20)>18>15--18------------------|
    G|---------------------------------------------17>(19)=====>17-|
    D|-------------------------------------------------------------|
    A|-------------------------------------------------------------|
    E|-------------------------------------------------------------|
    
    E|-------------------------------------------------------------|
    B|-------------------------------------------------------------|
    G|-(19)>17>15-------3-5---5>(7)>(8)>5---(8)>5--3--5--5>(7)vvvv-|
    D|------------17⁄-5--------------------------------------------|
    A|-------------------------------------------------------------|
    E|-------------------------------------------------------------|
    
    E|-------------------------------------------------------------|
    B|---------3----6----------------------------------------------|
    G|--5>(7)----------5>(8)==========>5-(7)>5>3-5-5>(7)vvvvvvvv>5-|
    D|-------------------------------------------------------------|
    A|-------------------------------------------------------------|
    E|-------------------------------------------------------------|
    
    KEYBOARD SOLO:
      Gm      Cm
    E|---------------------------------------------------------|
    B|--------5⁄3-------------------5⁄3-------------------10⁄8-|
    G|---------------------------------------------------------|
    D|--3/5---5⁄3--------------3/5--5⁄3-------------8/10--10⁄8-|
    A|--------------------------------------5------------------|
    E|-----------------------------------6---------------------|
    
      Gm     Eb    D  Eb  D    Gm    Cm   Gm    D7#9
    E|-------------------------------------------------------------|
    B|-------5⁄3-----8------7------8------11⁄---7----------------6-|
    G|-----------------------------------------------------------5-|
    D|--3/5--5⁄3-----8------7------8------11⁄---7----------------4-|
    A|-----------------------------------------------------------5-|
    E|-------------------------------------------------------------|
    
    SOLO:
    E|----15---------15-18>15------------3---------------0---------|
    B|-15----18>(20)----------18>(20)⁄-3----6----------------------|
    G|------------------------------------------5>(7)----5>3--5--3-|
    D|-------------------------------------------------------------|
    A|-------------------------------------------------------------|
    E|-------------------------------------------------------------|
    
    E|-----------------------------------|
    B|--------------------------------11-|
    G|-------15>(17)>15>(19)>15-11/12----|
    D|-5vvvv-----------------------------|
    A|-----------------------------------|
    E|-----------------------------------|
    
    E|---------------18----------------|
    B|----11-18>(20)----18>(20)vvvv18⁄-|
    G|-12------------------------------|
    D|---------------------------------|
    A|---------------------------------|
    E|---------------------------------|
    
    E|----6>5------------------------------------------------------|
    B|--------6/8⁄-------------------------------------------------|
    G|-6/7---------(17)>15>(19)>15-------15-17>(18)>17>15-17-17>15-|
    D|-----------------------------15/17---------------------------|
    A|-------------------------------------------------------------|
    E|-------------------------------------------------------------|
    
    E|-----------------------3-------------------------------------|
    B|-------------------------6---------------3-------------------|
    G|-17-17-17>15-17>(19)v⁄-----5>(7)-5-3>(5)-3---3-5---3⁄2-------|
    D|-------------------------------------------5-----5-----3-----|
    A|---------------------------------------------------------3/5-|
    E|-------------------------------------------------------------|
    
    E|-------------------------------------15----------------------|
    B|-----------------------------18>(20)-----18>(20)-----18>(20)-|
    G|-----3-----15>(17)>15>(19)>0----------------------0----------|
    D|-------3>5---------------------------------------------------|
    A|-4/5---------------------------------------------------------|
    E|-------------------------------------------------------------|
    
    E|-15-18>15-18>(20)v---18>(20)>18>15-18------------------------|
    B|--------------------------------------18>(20)----------------|
    G|-------------------0---------------------------15-17-17>(19)-|
    D|---------------------------------------------17--------------|
    A|-------------------------------------------------------------|
    E|-------------------------------------------------------------|
    
    E|-------------------------------------------------------------|
    B|-------------------------------------------------------------|
    G|-17>(20)---17>(20)>17----------------------------14--15vvvv⁄-|
    D|------------------------16vvvv-16>17>16⁄14-16-17-16--17vvvv⁄-|
    A|-------------------------------------------------------------|
    E|-------------------------------------------------------------|
    
    E|----3--------------------------------------------------------|
    B|-3----6------------------------------------------------------|
    G|---------5>(7)vvvv>5---(8)>5>3--5--3----3--------------------|
    D|--------------------------------------5---5------------------|
    A|---------------------------------------------5⁄3--1--3/5--5⁄-|
    E|-------------------------------------------------------------|
    

    Тональность:

    Нет текста!



    Назад
    Рекомендуем посмотреть другие песни исполнителя «Pink Floyd»:

    • Комментарии Facebook ()
    • Комментарии ВКонтакте



    Добавить в Избранное Браузера
    Сохранить здесь Очистить


    x

    0


    +
    -

    +
    -

    -

    Авторизация





    Зарегистрироваться

    M

    Дата и время

    • 06:57:51
       

    Социальные ссылки


    Наши приложения

    • Muzbank App Play Market
    • Muzbank Amazon App