MUZBANK



A Most Complete Bank Of Music Information

МУЗЫКАЛЬНО-ИНФОРМАЦИОННЫЙ БАНК

Поиск по сайту







    PPink Floyd • Shine On You Crazy Diamond Part 4 (аккорды и текст - chords & lyrics)


    309

    Print

    Видео «Shine On You Crazy Diamond Part 4 (Pink Floyd)»

    Видео клипы к песне подбираются автоматически сайтом youtube. Возможны некоторые несоответствия клипов песне.

    ↑ Спрятать рекламу ↑



    Download


    Two Guitars:
    E|--------------------------------------------------|
    B|-13>(15)vvvvvvvvv--(15)>13>11--13>(15)vvvvvvvvvvv-|
    G|--5>(7)vvvvvvvvvv---(7)>5>3-----5>(7)vvvvvvvvvvvv-|
    D|--------------------------------------------------|
    A|--------------------------------------------------|
    E|--------------------------------------------------|
    
    E|---------------------------------------13--15>(16)--15vvvvv⁄-|
    B|-(15)>13--11-13--14--15vvvv---15--16----6---8>(9)----8vvvvv--|
    G|--(7)>5----3--5---6---7vvvv----7---8-------------------------|
    D|-------------------------------------------------------------|
    A|-------------------------------------------------------------|
    E|-------------------------------------------------------------|
    
    E|-------------------------------------------------------------|
    B|-15>(16)-15--16>(18)--16>15---13vvv--------------------------|
    G|--7>(8)---7---8>(10)---8>7-----5vvv----12>10vvvvvv-----------|
    D|------------------------------------------------------4vvvvv-|
    A|-------------------------------------------------------------|
    E|-------------------------------------3>(5)>3--1vvvv-1-2vvvvv-|
    

    Тональность:

    Нет текста!



    Назад
    Рекомендуем посмотреть другие песни исполнителя «Pink Floyd»:

    • Комментарии Facebook ()
    • Комментарии ВКонтакте



    Добавить в Избранное Браузера
    Сохранить здесь Очистить


    x

    0


    +
    -

    +
    -

    -

    Авторизация





    Зарегистрироваться

    M

    Дата и время

    • 03:30:43
       

    Социальные ссылки


    Наши приложения

    • Muzbank App Play Market
    • Muzbank Amazon App