MUZBANK



A Most Complete Bank Of Music Information

МУЗЫКАЛЬНО-ИНФОРМАЦИОННЫЙ БАНК








    PPitchshifter • Dead Battery (аккорды и текст - chords & lyrics)


    224

    Print

    Видео «Dead Battery (Pitchshifter)»

    Видео клипы к песне подбираются автоматически сайтом youtube. Возможны некоторые несоответствия клипов песне.

    ↑ Спрятать рекламу ↑





     
    
    
    Dead Battery by Pitchshifter
    Tabbed by Chuck Browning (addbass311@aol.com)
    E-mail me with any tab requests for any type of music besides country.
    
    Pitchshifter tunes down one whole step
    
    
    Intro/Verse Riff
    
    F ------------------------
    C ------------------------
    G 0--7-6-X-X-X-X-X-5-5-7-7 
    D ------------------------
    
    Pre-Chorus Riff
    
    F ---------------------------------------------------------
    C ---------------------------------------------------------
    G --------------5--5-5--5-5-5---------------5-5-5-5-7-7-7-7
    D 7--7-7--7-7-7---------------7--7-7--7-7-7----------------
    
    
    Chorus Riff
    
    F -----------------------
    C -----------------------
    G -----------------------
    D 0--0-0--0-2--2-2--3-3-2
    
    
    Breakdown Riff
    
    F ----------------------------------------
    C ----------------------------------------
    G ---7-----7------7------8-----8-------8--
    D 0-----0----0-0----0-0-----0-----0-0----0
     

    Тональность:

    Нашли ошибку?



    Назад
    Рекомендуем посмотреть другие песни исполнителя «Pitchshifter»:

    • Комменты Fb ()
    • Комменты ВК



    Добавить в Избранное Браузера
    Сохранить здесь Очистить


    x

    0


    +
    -

    +
    -

    -

    Авторизация





    Зарегистрироваться

    M

    Дата и время

    • 02:40:48
       

    Социальные ссылки


    Наши приложения

    • Muzbank App Play Market
    • Muzbank Amazon App