MUZBANK



A Most Complete Bank Of Music Information

МУЗЫКАЛЬНО-ИНФОРМАЦИОННЫЙ БАНК

Поиск по сайту







    PPitchshifter • Hidden Agenda (аккорды и текст - chords & lyrics)


    251

    Print

    Видео «Hidden Agenda (Pitchshifter)»

    Видео клипы к песне подбираются автоматически сайтом youtube. Возможны некоторые несоответствия клипов песне.

    ↑ Спрятать рекламу ↑



    Download


     
    
    
    Band - Pitchshifter
    Song – Hidden Agenda
    Album - Deviant
    Tabbed by Tom Brunner
    Drop d tuning
    
    ~ - Let ring
    
    Intro/verse
    |-----------------|
    |-----------------|
    |-----------------|
    |-----------------|
    |-----------------|
    |-8-7--5---8-7—-5-|
    
    |---------------------|
    |-11/10----------8/10-|
    |---------------------|
    |---------------------|
    |---------------------|
    |---------------------|
    
    This is the part leading up to the chorus
    |---------------|---------------|
    |---------------|---------------|
    |---------------|---------------|
    |-2--4-4—-2-2-4-|-2--4-4—-2-2-4-|
    |-2—-4-4—-2-2-4-|-2—-4-4—-2-2-4-|
    |-2—-4-4—-2-2-4-|-2—-4-4—-2-2-4-|
    
    |---------------|--------------|
    |---------------|---------6-6-5|
    |-3—-5-5—-3-3-5-|-3—-5-5-3-----|
    |---------------|--------------|
    |---------------|--------------|
    |---------------|--------------|
    
    Chorus
    |----------------------------|
    |----------------------------|
    |----------------------------|
    |-2-2-2-2--2-2--2-4----------|
    |-2-2-2-2—-2-2--2-4-----5-4~-|
    |-2-2-2-2--2-2--2-4----------|
    
    Outro
    |-------------------------|
    |-------------------------|
    |-------------------------|
    |-7--7-7--7-7--7-7--7-7-7-|
    |-7--7-7--7-7--7-7--7-7-7-|
    |-7--7-7--7-7--7-7--7-7-7-|
    
    |------------------------------------------|
    |------------------------------------------|
    |------------------------------------------|
    |-10--10-10--10-10-12-12-12-12-10-10-10-10-|
    |-10--10-10--10-10-12-12-12-12-10-10-10-10-|
    |-10--10-10--10-10-12-12-12-12-10-10-10-10-|
    
    That’s it. If u have any corrections then write them. Id be happy 2 change it
     

    Тональность:

    Нет текста!



    Назад
    Рекомендуем посмотреть другие песни исполнителя «Pitchshifter»:

    • Комментарии Facebook ()
    • Комментарии ВКонтакте



    Добавить в Избранное Браузера
    Сохранить здесь Очистить


    x

    0


    +
    -

    +
    -

    -

    Авторизация





    Зарегистрироваться

    M

    Дата и время

    • 17:32:24
       

    Социальные ссылки


    Наши приложения

    • Muzbank App Play Market
    • Muzbank Amazon App